PrimaNota.ru - самый крупный в мире бесплатный архив песенных текстов, аккордов, табулатур и нот


Jake Bowen - Omnitopia - таба, видео

Регистрация Запомнить меня
Войти через:  Facebook Google Twitter Vk Yandex Mail.ru

Jake Bowen - Omnitopia - таба, видео

Печатать
Просмотров: 66
-------------------------------------------------------------------------------
                             Omnitopia - Jake Bowen
-------------------------------------------------------------------------------
Tabbed by: Peterline6
E-mail: peterline6.pc@gmail.com

Tuning: Standard Tuning (EADGBE)

This is the guitar part starting at 0:56

e|----------------------------------------------------------------------------------------|
B|---------------10-----------------------------------------------------------------------|
G|----------12-------------------------------------------10---------------------7---------|
D|-------12---12----12-8-10-8-10/12-------------12----------12-10\8------7-8-10---8-------|
A|-10 13----------------------------------10 13---------------------8-10------------------|
E|-------------------------------------------------10-13----------------------------------|



************************************

| /   slide up
| \   slide down
| h   hammer-on
| p   pull-off
| ~   vibrato
| +   harmonic
| x   Mute note
| b   Bend
| pb  Pre-bend
| br  Bend release
| pbr Pre-bend release
| brb Bend release bend

************************************
Добавлено: 04.06.2016
Другие материалы по этой песне:
  • Аккорды и текст

Страница создана 04.06.2016
http://primanota.ru/jake-bowen/omnitopia-chords.htm
Привет, Гость.
Предлагаем пройти революционный курс по гитаре.
Подарок от PrimaNota.Ru, забирай!