PrimaNota.ru - самый крупный в мире бесплатный архив песенных текстов, аккордов, табулатур и нот


Jaguares - La Celula Que Explota - таба, видео

Регистрация Запомнить меня
Войти через:  Facebook Google Twitter Vk Yandex Mail.ru

Jaguares - La Celula Que Explota - таба, видео

Печатать
Просмотров: 136
bueno la siguiente cancion es una buena rola i ps me gusta asi q aita 

TqM Rubí !!!!!!!! 


Intro:
                             Bm
|------------------------------2----|
|--10-10-10-10/8-8/-7--/-5-----3----|
|--11-11-11-11/9-9/7-7/6--6----4----|
|------------------------------4----|
|------------------------------2----|
|------------------------------2----|


|------------------------|
|--5-5/7-7/8-8/7/5-------|
|--6-6/7-7/9-9/7/6-------|
|------------------------|
|------------------------|
|------------------------|

Acompañamiento: Bm-F#m-G-A-Bm-F#m-G-A.

                             Bm
|------------------------------2----|
|--10-10-10-10/8-8/-7--/-5-----3----|
|--11-11-11-11/9-9/7-7/6--6----4----|
|------------------------------4----|
|------------------------------2----|
|------------------------------2----|


|------------------------|
|--5-5/7-7/8-8/7/5-------|
|--6-6/7-7/9-9/7/6-------|
|------------------------|
|------------------------|
|------------------------|

COMIENZA:

F#m                     G
HAY VECES QUE NO TENGO GANAS DE VERTE
F#m                     G
HAY VECES QUE NO QUIERO ,NI TOCARTE
A                       Bm
HAY VECES QUE QUISIERA AHOGARTE EN UN GRITO
A                Bm
Y OLVIDARME DE ESA IMAGEN TUYA
G     A      Bm
PERO NO ME ATREVO.

F#m              G
HAY VECES QUE NO DEJO DE SOÑARTE
F#m              G
DE ACARICIARTE HASTA QUE YA NO PUEDA
A                     Bm
HAY VECES QUE QUISIERA MORIR CONTIGO
A              Bm
Y OLVIDARME DE TODA MATERIA
G      A      Bm
PERO NO ME ATREVO.

                             Bm
|------------------------------2----|
|--10-10-10-10/8-8/-7--/-5-----3----|
|--11-11-11-11/9-9/7-7/6--6----4----|
|------------------------------4----|
|------------------------------2----|
|------------------------------2----|


F-G-F-G-F-G

F#m                G
HAY VECES QUE NO SE LO QUE ME PASA
F#m                G
YA NO PUEDO SABER QUE ES LO QUE PASA ADENTRO
A           Bm
SOMOS COMO GATOS EN CELO ,
A            Bm
SOMOS UNA CELULA QUE EXPLOTA
G      A      Bm
Y ESA NO LA PARAS.

F
NO,
      G
NO LA PARAS
F
NO,
G
NO,
F
NOOOOOOO.
D-Bm-A.
   TERMINA ASI:
                          Bm
|------------------------------2----|
|--10-10-10-10/8-8/-7--/-5-----3----|
|--11-11-11-11/9-9/7-7/6--6----4----|
|------------------------------4----|
|------------------------------2----|
|------------------------------2----|
Добавлено: 24.03.2012
Другие материалы по этой песне:

Страница создана 24.03.2012
http://primanota.ru/jaguares/la-celula-que-explota-chords.htm
Привет, Гость.
Предлагаем пройти революционный курс по гитаре.
Подарок от PrimaNota.Ru, забирай!