PrimaNota.ru - самый крупный в мире бесплатный архив песенных текстов, аккордов, табулатур и нот


Jaga Jazzist - Going Down - таба, видео

Регистрация Запомнить меня
Войти через:  Facebook Google Twitter Vk Yandex Mail.ru

Jaga Jazzist - Going Down - таба, видео

Печатать
Просмотров: 197
Уроки эстрадного вокала в Санкт-Петербурге
Jaga Jazzist - Going Down

Not an unsigned band, but UG didn't have it in the database at the time I submitted it.

1)
e|-----------------------------------------------------------|
B|-----3---1~----------0h1-------3--------3--1------0------0-|
G|---2---------0~----0-----0----------0h2------0----0------0-| x2
D|-0-----3-------------------2h3----1------------------------|
A|-----------------3-----------------------------------------|
E|--------------------------------------------------3------3-|

   Dm    Fmaj7     Cmaj             Asus4/D#        Gmaj

2)
e|------------------------------------------------------------|
B|-----3-------1~------0h1-------3--------3--1------0------0--|
G|---2-----(0)-------0-----0----------0h2------0----0------0--| 3rd time.
D|-0-----3-------------------2h3----1-------------------------|
A|-----------------3------------------------------------------|
E|--------------------------------------------------3------3--|

   Dm    Fmaj7     Cmaj             Asus4/D#        Gmaj

Then play 1) throughout the rest of the song. Pause at the sax / synth duo.

That's about it!
Добавлено: 22.05.2012
Другие материалы по этой песне:
  • Аккорды и текст

Страница создана 22.05.2012
http://primanota.ru/jaga-jazzist/going-down-chords.htm
Привет, Гость.
Предлагаем пройти революционный курс по гитаре.
Подарок от PrimaNota.Ru, забирай!