PrimaNota.ru - самый крупный в мире бесплатный архив песенных текстов, аккордов, табулатур и нот


Jaga Jazzist - Bananenfluer Overalt - таба

Регистрация Запомнить меня
Войти через:  Facebook Google Twitter Vk Yandex Mail.ru

Jaga Jazzist - Bananenfluer Overalt - таба

Печатать
Просмотров: 54
Jaga Jazzist Bananenfluer Overalt

You tube : https://www.youtube.com/watch?v=h3kOVxteDAQ

These are the most important melodylines

Melody 1


E |2-------5-----7-|----------------|7------------5--|----------------|
B-|--5---3-----3---|----------------|--8--------5----|----------------|
G-|----4-----------|----------------|----7-6---------|----------------|
D-|----------------|----------------|----------------|----------------|
A-|----------------|----------------|----------------|----------------|
E-|----------------|----------------|----------------|----------------|


E |5-7-------------|----------------|----------------|----------------|
B-|----6-5---------|7---------------|----------------|----------------|
G-|----------------|--7-------------|--7---7/11------|--7---7/9-------|
D-|----------------|----9-----------|----------------|----------------|
A-|----------------|----------------|----------------|----------------|
E-|----------------|----------------|----------------|----------------|



E |----------------|----------------|----------------|----------------|
B-|----------------|----------------|----------------|----------------|
G-|--7---7/11------|--7--6----------|--7-------------|----------------|
D-|----------------|----------------|------9---------|----------------|
A-|----------------|----------------|----------------|----------------|
E-|----------------|----------------|----------------|----------------|



E |2---------------|
B-|--5---3---------|
G-|----4-----------|
D-|----------------|
A-|----------------|
E-|----------------|



Bridge bass to melody 2


G-|----------------|----------------|----------------|
D-|--------9---9---|9-7---7---9--9--|9--7------------|
A-|----------------|----9-----------|------9---------|
E-|----------------|----------------|----------------|


 2nd melodyline

E |----------------|------------0---|----------------|------------2---|
B-|757-------------|----------------|757-------------|----------------|
G-|----------------|----5---4-------|----------------|----5---4-------|
D-|----------------|----------------|----------------|----------------|
A-|----------------|----------------|----------------|----------------|
E-|----------------|----------------|----------------|----------------|


E |757-------------|------------5---|757-------------|------------7---|
B-|----------------|----4---3-------|----------------|----4---3-------|
G-|----------------|----------------|----------------|----------------|
D-|----------------|----------------|----------------|----------------|
A-|----------------|----------------|----------------|----------------|
E-|----------------|----------------|----------------|----------------|


E |10710-----------|---8---7---10---|10710-----------|----8---7-------|
B-|----------------|----------------|----------------|------------8---|
G-|----------------|----------------|----------------|----------------|
D-|----------------|----------------|----------------|----------------|
A-|----------------|----------------|----------------|----------------|
E-|----------------|----------------|----------------|----------------|


E |----------------|-----------0----|----------------|------------5---|
B-|757-------------|----------------|757-------------|----------------|
G-|----------------|---5---4--------|----------------|----5---4-------|
D-|----------------|----------------|----------------|----------------|
A-|----------------|----------------|----------------|----------------|
E-|----------------|----------------|----------------|----------------|

Repeat first melodyline 
Добавлено: 26.06.2016
Другие материалы по этой песне:
  • Аккорды и текст

Страница создана 26.06.2016
http://primanota.ru/jaga-jazzist/bananenfluer-overalt-chords.htm
Привет, Гость.
Предлагаем пройти революционный курс по гитаре.
Подарок от PrimaNota.Ru, забирай!