PrimaNota.ru - самый крупный в мире бесплатный архив песенных текстов, аккордов, табулатур и нот


Jag Panzer - The Scarlet Letter - текст песни, таба, видео

Регистрация Запомнить меня
Войти через:  Facebook Google Twitter Vk Yandex Mail.ru

Jag Panzer - The Scarlet Letter - текст песни, таба, видео

Печатать
Просмотров: 107
As recorded by Jag Panzer
(From the 2001 Album MECHANIZED WARFARE)

Transcribed by Joey Saturn
        

Words by Harry Conklin Music by Mark Broidy & Harry Conklin

Gtr I (E A D G B E) - 'Untitled'
Gtr II (E A D G B E) - 'Untitled'

 Intro
  (E(A(A(E5)
 4/4
  Gtr I
            PM----------------------------------|
  |-3-|     |-3-| |-3-|   |-3-| |-3-| |-3-| |-3-|
  E E E E E E E E E E E   E E E E E E E E E E E E
|-----------------------|-------------------------|
|-----------------------|-------------------------|
|-----------------------|-------------------------|
|-2-0-1-2---------------|-------------------------|
|-2-0-1-2---------------|-------------------------|
|-----------0-0-0-0-0-0-|-0-0-0-0-0-0-0-0-0-0-0-0-|
|
| Gtr II
| |-3-|
| E E E E E Q     Q       W
|-----------------------|-------------------------|
|-----------------------|-------------------------|
|-----------------------|-------------------------|
|-2-0-1-2---------------|-------------------------|
|-2-0-1-2---------------|-------------------------|
|-----------------------|-------------------------|


  (E(A(A(E5)                    C5   A#5
            PM----------------|
  |-3-|     |-3-| |-3-|   |-3-|
  E E E E E E E E E E E   E E E H    Q
|-----------------------|---------------|
|-----------------------|---------------|
|-----------------------|---------------|
|-2-0-1-2---------------|-------5----3--|
|-2-0-1-2---------------|-------3----1--|
|-----------0-0-0-0-0-0-|-0-0-0---------|
|
| |-3-|
| E E E E E Q     Q       Q     H    Q
|-----------------------|---------------|
|-----------------------|---------------|
|-----------------------|---------------|
|-2-0-1-2---------------|-------5----3--|
|-2-0-1-2---------------|-------3----1--|
|-----------------------|---------------|


  (E(A(A(E5)
            PM----------------------------------|
  |-3-|     |-3-| |-3-|   |-3-| |-3-| |-3-| |-3-|
  E E E E E E E E E E E   E E E E E E E E E E E E
|-----------------------|-------------------------|
|-----------------------|-------------------------|
|-----------------------|-------------------------|
|-2-0-1-2---------------|-------------------------|
|-2-0-1-2---------------|-------------------------|
|-----------0-0-0-0-0-0-|-0-0-0-0-0-0-0-0-0-0-0-0-|
|
| |-3-|
| E E E E E Q     Q       W
|-----------------------|-------------------------|
|-----------------------|-------------------------|
|-----------------------|-------------------------|
|-2-0-1-2---------------|-------------------------|
|-2-0-1-2---------------|-------------------------|
|-----------------------|-------------------------|


  (E(A(A(E5)                    C5   A#5
            PM----------------|
  |-3-|     |-3-| |-3-|   |-3-|
  E E E E E E E E E E E   E E E H    Q
|-----------------------|---------------|
|-----------------------|---------------|
|-----------------------|---------------|
|-2-0-1-2---------------|-------5----3--|
|-2-0-1-2---------------|-------3----1--|
|-----------0-0-0-0-0-0-|-0-0-0---------|
|
| |-3-|
| E E E E E Q     Q       Q     H    Q
|-----------------------|---------------|
|-----------------------|---------------|
|-----------------------|---------------|
|-2-0-1-2---------------|-------5----3--|
|-2-0-1-2---------------|-------3----1--|
|-----------------------|---------------|


 Verse
  N.C.
  Gtrs I, II
                                      PM--|
      |-3-|     |-3-|       |-3-|     |-3-|
  E E E E E E E E E E   E E E E E E E E E E
|---------------------|---------------------|
|---------------------|---------------------|
|---------------------|---------------------|
|-2---2-0-1-2---2-0-1-|-2---2-0-1-2---------|
|-2---2-0-1-2---2-0-1-|-2---2-0-1-2---------|
|---------------------|---------------1-1-1-|


                                      PM--|
      |-3-|     |-3-|       |-3-|     |-3-|
  E E E E E E E E E E   E E E E E E E E E E
|---------------------|----------------------|
|---------------------|----------------------|
|---------------------|----------------------|
|-2---2-0-1-2---2-0-1-|-2---2-0-1-2----------|
|-2---2-0-1-2---2-0-1-|-2---2-0-1-2----------|
|---------------------|---------------1-1-1--|


                                        PM--|
        |-3-|     |-3-|       |-3-|     |-3-|
    E E E E E E E E E E   E E E E E E E E E E
||----------------------|---------------------|
||o---------------------|---------------------|
||----------------------|---------------------|
||--2---2-0-1-2---2-0-1-|-2---2-0-1-2---------|
||o-2---2-0-1-2---2-0-1-|-2---2-0-1-2---------|
||----------------------|---------------1-1-1-|


                                      PM--|
      |-3-|     |-3-|       |-3-|     |-3-|
  E E E E E E E E E E   E E E E E E E E E E
|---------------------|---------------------|
|---------------------|---------------------|
|---------------------|---------------------|
|-2---2-0-1-2---2-0-1-|-2---2-0-1-2---------|
|-2---2-0-1-2---2-0-1-|-2---2-0-1-2---------|
|---------------------|---------------1-1-1-|


 Pre chorus
  Gtr I
  PM----------------------------------------------|
  |-3-| |-3-| |-3-| |-3-|   |-3-| |-3-| |-3-| |-3-|
  E E E E E E E E E E E E   E E E E E E E E E E E E
|-------------------------|-------------------------|
|-------------------------|-------------------------|
|-------------------------|-------------------------|
|-------------------------|-------------------------|
|-------------------------|-------------------------|
|-0-0-0-0-0-0-0-0-0-0-0-0-|-3-3-3-2-2-2-3-3-3-5-5-5-|
|
| Gtr II
| PM----------------------------------------------|
| |-3-| |-3-| |-3-| |-3-|   |-3-| |-3-| |-3-| |-3-|
| E E E E E E E E E E E E   E E E E E E E E E E E E
|-------------------------|-------------------------|
|-------------------------|-------------------------|
|-------------------------|-------------------------|
|-------------------------|-------------------------|
|-------------------------|-2-2-2-0-0-0-2-2-2-3-3-3-|
|-0-0-0-0-0-0-0-0-0-0-0-0-|-------------------------|


  PM----------------------------------------------|
  |-3-| |-3-| |-3-| |-3-|   |-3-| |-3-| |-3-| |-3-|
  E E E E E E E E E E E E   E E E E E E E E E E E E
|-------------------------|-------------------------|
|-------------------------|-------------------------|
|-------------------------|-------------------------|
|-------------------------|-------------------------|
|-------------------------|-------------------------|
|-0-0-0-0-0-0-0-0-0-0-0-0-|-3-3-3-2-2-2-3-3-3-5-5-5-|
|
| PM----------------------------------------------|
| |-3-| |-3-| |-3-| |-3-|   |-3-| |-3-| |-3-| |-3-|
| E E E E E E E E E E E E   E E E E E E E E E E E E
|-------------------------|-------------------------|
|-------------------------|-------------------------|
|-------------------------|-------------------------|
|-------------------------|-------------------------|
|-------------------------|-2-2-2-0-0-0-2-2-2-3-3-3-|
|-0-0-0-0-0-0-0-0-0-0-0-0-|-------------------------|


 Chorus
  G5          B5            A5          C5
  Gtr I
  PM-----------------------------------------------|
  |-3-| |-3-| |-3-| |-3-|   |-3-| |-3-|  |-3-| |-3-|
  E E E E E E E E E E E E   E E E E E E  E E E E E E
|-------------------------|--------------------------|
|-------------------------|--------------------------|
|-------------------------|--------------------------|
|-------------------------|--------------------------|
|-------------2-2-2-2-2-2-|--------------3-3-3-3-3-3-|
|-3-3-3-3-3-3-------------|-5-5-5-5-5-5--------------|
|
| Gtr II
| H           H             H            H
|-------------------------|--------------------------|
|-------------------------|--------------------------|
|-------------------------|--------------------------|
|-------------------------|--------------------------|
|-5-----------9-----------|-7-----------10-----------|
|-3-----------7-----------|-5------------8-----------|


  G5          B5            A5          G5    F#5
  PM----------------------------------------------|
  |-3-| |-3-| |-3-| |-3-|   |-3-| |-3-| |-3-| |-3-|
  E E E E E E E E E E E E   E E E E E E E E E E E E
|-------------------------|-------------------------|
|-------------------------|-------------------------|
|-------------------------|-------------------------|
|-------------------------|-------------------------|
|-------------2-2-2-2-2-2-|-------------------------|
|-3-3-3-3-3-3-------------|-5-5-5-5-5-5-3-3-3-2-2-2-|
|
| H           H             H           Q     Q
|-------------------------|-------------------------|
|-------------------------|-------------------------|
|-------------------------|-------------------------|
|-------------------------|-------------------------|
|-5-----------9-----------|-7-----------5-----4-----|
|-3-----------7-----------|-5-----------3-----2-----|


  G5          B5            A5          C5
  PM-----------------------------------------------|
  |-3-| |-3-| |-3-| |-3-|   |-3-| |-3-|  |-3-| |-3-|
  E E E E E E E E E E E E   E E E E E E  E E E E E E
|-------------------------|--------------------------|
|-------------------------|--------------------------|
|-------------------------|--------------------------|
|-------------------------|--------------------------|
|-------------2-2-2-2-2-2-|--------------3-3-3-3-3-3-|
|-3-3-3-3-3-3-------------|-5-5-5-5-5-5--------------|
|
| H           H             H            H
|-------------------------|--------------------------|
|-------------------------|--------------------------|
|-------------------------|--------------------------|
|-------------------------|--------------------------|
|-5-----------9-----------|-7-----------10-----------|
|-3-----------7-----------|-5------------8-----------|


  G5          B5            E5          D5    C#5
  PM----------------------------------------------|
  |-3-| |-3-| |-3-| |-3-|   |-3-| |-3-| |-3-| |-3-|
  E E E E E E E E E E E E   E E E E E E E E E E E E
|-------------------------|--------------------------||
|-------------------------|-------------------------o||
|-------------------------|--------------------------||
|-------------------------|--------------------------||
|-------------2-2-2-2-2-2-|-7-7-7-7-7-7-5-5-5-4-4-4-o||
|-3-3-3-3-3-3-------------|--------------------------||
|
| H           H             H           Q     Q
|-------------------------|--------------------------||
|-------------------------|-------------------------o||
|-------------------------|--------------------------||
|-------------------------|-9-----------7-----6------||
|-5-----------9-----------|-7-----------5-----4-----o||
|-3-----------7-----------|--------------------------||


 Solo
  Gtr I
   |--3--|  |--3--|  |--3--|  |--3--|  |--3--|  |--3--|  |--3--|  |--3--|
   S  S  S  S  S  S  S  S  S  S  S  S  S  S  S  S  S  S  S  S  S  S  S  S
|-15-12-14-15-14-12-------------------------------------------------------|
|-------------------------------------------------------------------------|
|-------------------16-14-12-16-14-12-------------------16-14-12-16-14-12-|
|-------------------------------------17-14-16-17-16-14-------------------|
|-------------------------------------------------------------------------|
|-------------------------------------------------------------------------|
|
| Gtr II
|  PM----------------------------------------------------------------------
|  |-----3-----|     |-----3-----|     |-----3-----|     |-----3-----|
|  E     E     E     E     E     E     E     E     E     E     E     E
|-------------------------------------------------------------------------|
|-------------------------------------------------------------------------|
|-------------------------------------------------------------------------|
|-------------------------------------------------------------------------|
|-------------------------------------------------------------------------|
|--0-----0-----0-----0-----------------0-----0-----0-----0----------------|


                                      (E5)  (A5)  (A#5) (E5)
   |--3--|  |--3--|  |--3--|  |--3--|  |--3--|  |--3--|  |--3--|  |--3--|
   S  S  S  S  S  S  S  S  S  S  S  S  S  S  S  S  S  S  S  S  S  S  S  S
|-15-12-14-15-14-12--------------------------------------------------------|
|--------------------------------------------------------------------------|
|-------------------16-14-12-16-14-12-------------------16-14-12-16-14-12--|
|-------------------------------------17-14-16-17-16-14--------------------|
|--------------------------------------------------------------------------|
|--------------------------------------------------------------------------|
|
|-------------------|
|  |-----3-----|     |-----3-----|     |-----3-----|     |-----3-----|
|  E     E     E     E     E     E     E     E     E     E     E     E
|--------------------------------------------------------------------------|
|--------------------------------------------------------------------------|
|--------------------------------------------------------------------------|
|--------------------------------------2-----0-----1-----2-----------------|
|--------------------------------------2-----0-----1-----2-----------------|
|--0-----0-----0-----0-----------------------------------------------------|


   |--3--|  |--3--|  |--3--|  |--3--|  |--3--|  |--3--|  |--3--|  |--3--|
   S  S  S  S  S  S  S  S  S  S  S  S  S  S  S  S  S  S  S  S  S  S  S  S
|-15-12-14-15-14-12-------------------------------------------------------|
|-------------------------------------------------------------------------|
|-------------------16-14-12-16-14-12-------------------16-14-12-16-14-12-|
|-------------------------------------17-14-16-17-16-14-------------------|
|-------------------------------------------------------------------------|
|-------------------------------------------------------------------------|
|
|  PM----------------------------------------------------------------------
|  |-----3-----|     |-----3-----|     |-----3-----|     |-----3-----|
|  E     E     E     E     E     E     E     E     E     E     E     E
|-------------------------------------------------------------------------|
|-------------------------------------------------------------------------|
|-------------------------------------------------------------------------|
|-------------------------------------------------------------------------|
|-------------------------------------------------------------------------|
|--0-----0-----0-----0-----------------0-----0-----0-----0----------------|


                                      (E5)  (A5)  (A#5) (E5)
   |--3--|  |--3--|  |--3--|  |--3--|  |--3--|  |--3--|  |--3--|  |--3--|
   S  S  S  S  S  S  S  S  S  S  S  S  S  S  S  S  S  S  S  S  S  S  S  S
|-15-12-14-15-14-12--------------------------------------------------------|
|--------------------------------------------------------------------------|
|-------------------16-14-12-16-14-12-------------------16-14-12-16-14-12--|
|-------------------------------------17-14-16-17-16-14--------------------|
|--------------------------------------------------------------------------|
|--------------------------------------------------------------------------|
|
|-------------------|
|  |-----3-----|     |-----3-----|     |-----3-----|     |-----3-----|
|  E     E     E     E     E     E     E     E     E     E     E     E
|--------------------------------------------------------------------------|
|--------------------------------------------------------------------------|
|--------------------------------------------------------------------------|
|--------------------------------------2-----0-----1-----2-----------------|
|--------------------------------------2-----0-----1-----2-----------------|
|--0-----0-----0-----0-----------------------------------------------------|


                    E5
   |--3--|  |--3--|  |--3--|  |--3--|  |--3--|  |--3--|  |--3---|  |--3--|
   S  S  S  S  S  S  S  S  S  S  S  S  S  S  S  S  S  S  S   S  S  S  S  S
|-17-14-15-17-15-14--------------------------------------------------------|
|--------------------------------------------------------------------------|
|-------------------17-16-14-17-16-14-------------------17--16-14-17-16-14-|
|-------------------------------------19-16-17-19-17-16--------------------|
|--------------------------------------------------------------------------|
|--------------------------------------------------------------------------|
|
|  PM---------|
|  |-----3-----|
|  E     E     E     H                                  +Q
|--------------------------------------------------------------------------|
|--------------------------------------------------------------------------|
|--------------------------------------------------------------------------|
|--------------------2----------------------------------(2)----------------|
|--------------------2----------------------------------(2)----------------|
|--0-----0-----0-----0----------------------------------(0)----------------|


                    C5
   |--3--|  |--3--|  |--3--|  |--3--|  |--3--|  |--3--|  |--3---|  |--3--|
   S  S  S  S  S  S  S  S  S  S  S  S  S  S  S  S  S  S  S   S  S  S  S  S
|-17-14-15-17-15-14---------------------------------------------------------|
|---------------------------------------------------------------------------|
|-------------------17-16-14-17-16-14-------------------17--16-14-17-16-14--|
|-------------------------------------19-16-17-19-17-16---------------------|
|---------------------------------------------------------------------------|
|---------------------------------------------------------------------------|
|
|  PM---------|
|  |-----3-----|
|  E     E     E     H                                  +Q
|---------------------------------------------------------------------------|
|---------------------------------------------------------------------------|
|--------------------5----------------------------------(5)-----------------|
|--------------------5----------------------------------(5)-----------------|
|--------------------3----------------------------------(3)-----------------|
|--0-----0-----0------------------------------------------------------------|


                    D5
   |--3--|  |--3--|  |--3--|  |--3--|  |--3--|  |--3--|  |--3---|  |--3--|
   S  S  S  S  S  S  S  S  S  S  S  S  S  S  S  S  S  S  S   S  S  S  S  S
|-19-15-17-19-15-17-----------------------------------------------15-17-19-|
|-------------------------------------------------------15--17-19----------|
|-------------------19-17-16-------------------14-16-17--------------------|
|----------------------------19-17-16-14-16-17-----------------------------|
|--------------------------------------------------------------------------|
|--------------------------------------------------------------------------|
|
|  PM---------|
|  |-----3-----|
|  E     E     E     H                                  +Q
|--------------------------------------------------------------------------|
|--------------------------------------------------------------------------|
|--------------------7----------------------------------(7)----------------|
|--------------------7----------------------------------(7)----------------|
|--------------------5----------------------------------(5)----------------|
|--0-----0-----0-----------------------------------------------------------|


                    E5
   |--3--|  |--3--|  |--3--|  |--3--|  |--3--|  |--3--|  |--3---|  |--3--|
   S  S  S  S  S  S  S  S  S  S  S  S  S  S  S  S  S  S  S   S  S  S  S  S
|-19-15-17-19-15-17-----------------------------------------------15-17-19--|
|-------------------------------------------------------15--17-19-----------|
|-------------------19-17-16-------------------14-16-17---------------------|
|----------------------------19-17-16-14-16-17------------------------------|
|---------------------------------------------------------------------------|
|---------------------------------------------------------------------------|
|
|  PM---------|
|  |-----3-----|
|  E     E     E     H                                  +Q
|---------------------------------------------------------------------------|
|---------------------------------------------------------------------------|
|--------------------9----------------------------------(9)-----------------|
|--------------------9----------------------------------(9)-----------------|
|--------------------7----------------------------------(7)-----------------|
|--0-----0-----0------------------------------------------------------------|


                    E5
   |--3--|  |--3--|  |--3--|  |--3--|  |--3--|  |--3--|  |--3---|  |--3--|
   S  S  S  S  S  S  S  S  S  S  S  S  S  S  S  S  S  S  S   S  S  S  S  S
|-15-12-14-15-14-12--------------------------------------------------------|
|--------------------------------------------------------------------------|
|-------------------16-14-12-16-14-12--------------------------------------|
|-------------------------------------17-14-16-17-16-14--------------------|
|--------------------------------------------------------------------------|
|-------------------------------------------------------15--14-12-15-14-12-|
|
|  PM---------|
|  |-----3-----|
|  E     E     E     H                                  +Q
|--------------------------------------------------------------------------|
|--------------------------------------------------------------------------|
|--------------------------------------------------------------------------|
|--------------------2----------------------------------(2)----------------|
|--------------------2----------------------------------(2)----------------|
|--0-----0-----0-----0----------------------------------(0)----------------|


                    C5
   |--3--|  |--3--|  |--3--|  |--3--|  |--3--|  |--3--|  |--3---|  |--3--|
   S  S  S  S  S  S  S  S  S  S  S  S  S  S  S  S  S  S  S   S  S  S  S  S
|-15-12-14-15-14-12---------------------------------------------------------|
|---------------------------------------------------------------------------|
|-------------------16-14-12-16-14-12---------------------------------------|
|-------------------------------------17-14-16-17-16-14---------------------|
|---------------------------------------------------------------------------|
|-------------------------------------------------------15--14-12-15-14-12--|
|
|  PM---------|
|  |-----3-----|
|  E     E     E     H                                  +Q
|---------------------------------------------------------------------------|
|---------------------------------------------------------------------------|
|--------------------5----------------------------------(5)-----------------|
|--------------------5----------------------------------(5)-----------------|
|--------------------3----------------------------------(3)-----------------|
|--0-----0-----0------------------------------------------------------------|


                    D5
   |--3--|  |--3--|  |--3--|  |--3--|  |--3--|  |--3--|  |--3---|  |--3--|
   S  S  S  S  S  S  S  S  S  S  S  S  S  S  S  S  S  S  S   S  S  S  S  S
|-------------------------------------17-14-15-17-15-14--------------------|
|--------------------------------------------------------------------------|
|-------------------16-14-12-16-14-12-------------------17--16-14-17-16-14-|
|--------------------------------------------------------------------------|
|-15-12-14-15-14-12--------------------------------------------------------|
|--------------------------------------------------------------------------|
|
|  PM---------|
|  |-----3-----|
|  E     E     E     H                                  +Q
|--------------------------------------------------------------------------|
|--------------------------------------------------------------------------|
|--------------------7----------------------------------(7)----------------|
|--------------------7----------------------------------(7)----------------|
|--------------------5----------------------------------(5)----------------|
|--0-----0-----0-----------------------------------------------------------|


                    E5
   |--3--|  |--3--|  |--3--|  |--3--|  |--3--|  |--3--|  |--3---|  |--3--|
   S  S  S  S  S  S  S  S  S  S  S  S  S  S  S  S  S  S  S   S  S  S  S  S
|-------------------------------------17-14-15-17-15-14---------------------|
|---------------------------------------------------------------------------|
|-------------------16-14-12-16-14-12-------------------17--16-14-17-16-14--|
|---------------------------------------------------------------------------|
|-15-12-14-15-14-12---------------------------------------------------------|
|---------------------------------------------------------------------------|
|
|  PM---------|
|  |-----3-----|
|  E     E     E     H                                  +Q
|---------------------------------------------------------------------------|
|---------------------------------------------------------------------------|
|--------------------9----------------------------------(9)-----------------|
|--------------------9----------------------------------(9)-----------------|
|--------------------7----------------------------------(7)-----------------|
|--0-----0-----0------------------------------------------------------------|


   |--3--|  |--3--|  |--3--|  |--3--|  |--3--|  |--3--|  |--3--|  |--3--|
   S  S  S  S  S  S  S  S  S  S  S  S  S  S  S  S  S  S  S  S  S  S  S  S
|-19-15-17-19-17-15-------------------------------------------------------|
|-------------------------------------------------------------------------|
|-------------------19-17-16-19-17-16-------------------------------------|
|-------------------------------------21-17-19-21-19-17-------------------|
|-------------------------------------------------------------------------|
|-------------------------------------------------------19-17-15-19-17-15-|
|
|  PM----------------------------------------------------------------------
|  |-----3-----|     |-----3-----|     |-----3-----|     |-----3-----|
|  E     E     E     E     E     E     E     E     E     E     E     E
|-------------------------------------------------------------------------|
|-------------------------------------------------------------------------|
|-------------------------------------------------------------------------|
|-------------------------------------------------------------------------|
|-------------------------------------------------------------------------|
|--3-----0-----0-----2-----3-----5-----3-----0-----0-----2-----3-----5----|


   |--3--|  |--3--|  |--3--|  |--3--|  |--3--|  |--3--|  |--3--|  |--3--|
   S  S  S  S  S  S  S  S  S  S  S  S  S  S  S  S  S  S  S  S  S  S  S  S
|-19-15-17-19-17-15--------------------------------------------------------|
|--------------------------------------------------------------------------|
|-------------------19-17-16-19-17-16--------------------------------------|
|-------------------------------------21-17-19-21-19-17--------------------|
|--------------------------------------------------------------------------|
|-------------------------------------------------------19-17-15-19-17-15--|
|
|-------------------------------------------------------------------|
|  |-----3-----|     |-----3-----|     |-----3-----|     |-----3-----|
|  E     E     E     E     E     E     E     E     E     E     E     E
|--------------------------------------------------------------------------|
|--------------------------------------------------------------------------|
|--------------------------------------------------------------------------|
|--------------------------------------------------------------------------|
|--------------------------------------------------------------------------|
|--3-----0-----0-----2-----3-----5-----3-----0-----0-----2-----3-----5-----|


   |--3--|  |--3--|  |--3--|  |--3--|  |--3--|  |--3--|  |--3--|  |--3--|
   S  S  S  S  S  S  S  S  S  S  S  S  S  S  S  S  S  S  S  S  S  S  S  S
|-------------------------------------------------------------------------|
|-------------------------------------------------------20-19-17-20-19-17-|
|-------------------19-17-16-19-17-16-------------------------------------|
|-------------------------------------19-16-17-19-17-16-------------------|
|-19-15-17-19-17-15-------------------------------------------------------|
|-------------------------------------------------------------------------|
|
|  PM----------------------------------------------------------------------
|  |-----3-----|     |-----3-----|     |-----3-----|     |-----3-----|
|  E     E     E     E     E     E     E     E     E     E     E     E
|-------------------------------------------------------------------------|
|-------------------------------------------------------------------------|
|-------------------------------------------------------------------------|
|-------------------------------------------------------------------------|
|-------------------------------------------------------------------------|
|--3-----0-----0-----2-----3-----5-----3-----0-----0-----2-----3-----5----|


   |--3--|  |--3--|  |--3--|  |--3--|  |--3--|  |--3--|  |--3--|  |--3--|
   S  S  S  S  S  S  S  S  S  S  S  S  S  S  S  S  S  S  S  S  S  S  S  S
|--------------------------------------------------------------------------|
|-------------------------------------------------------20-19-17-20-19-17--|
|-------------------19-17-16-19-17-16--------------------------------------|
|-------------------------------------19-16-17-19-17-16--------------------|
|-19-15-17-19-17-15--------------------------------------------------------|
|--------------------------------------------------------------------------|
|
|-------------------------------------------------------------------|
|  |-----3-----|     |-----3-----|     |-----3-----|     |-----3-----|
|  E     E     E     E     E     E     E     E     E     E     E     E
|--------------------------------------------------------------------------|
|--------------------------------------------------------------------------|
|--------------------------------------------------------------------------|
|--------------------------------------------------------------------------|
|--------------------------------------------------------------------------|
|--3-----0-----0-----2-----3-----5-----3-----0-----0-----2-----3-----5-----|


  B5                                  C5
   |--3--|  |--3--|  |--3--|  |--3--|  |--3--|  |--3--|  |--3--|  |--3--|
   S  S  S  S  S  S  S  S  S  S  S  S  S  S  S  S  S  S  S  S  S  S  S  S
|-19-17-15----------------------------------------------------------------|
|----------19-17-15-19-17-15----------------------------------------------|
|----------------------------17-16-14-17-16-14----------------------------|
|----------------------------------------------17-16-14-17-16-14----------|
|----------------------------------------------------------------17-15-14-|
|-------------------------------------------------------------------------|
|
|                    PM---------|                        PM---------|
|                    |-----3-----|                       |-----3-----|
|  Q                 E     E     E     Q                 E     E     E
|-------------------------------------------------------------------------|
|-------------------------------------------------------------------------|
|-------------------------------------------------------------------------|
|--9----------------------------------10----------------------------------|
|--9----------------------------------10----------------------------------|
|--7-----------------7-----7-----7-----8-----------------8-----8-----8----|


  A5                                  B5
   |--3--|  |--3--|  |--3--|  |--3--|  |--3--|  |--3--|  |--3--|  |--3--|
   S  S  S  S  S  S  S  S  S  S  S  S  S  S  S  S  S  S  S  S  S  S  S  S
|-19-17-15-----------------------------------------------------------------|
|----------19-17-15-19-17-15-----------------------------------------------|
|----------------------------17-16-14-17-16-14-----------------------------|
|----------------------------------------------17-16-14-17-16-14-----------|
|----------------------------------------------------------------17-15-14--|
|--------------------------------------------------------------------------|
|
|                    PM---------|                        PM---------|
|                    |-----3-----|                       |-----3-----|
|  Q                 E     E     E     Q                 E     E     E
|--------------------------------------------------------------------------|
|--------------------------------------------------------------------------|
|--------------------------------------------------------------------------|
|--7-----------------------------------9-----------------------------------|
|--7-----------------------------------9-----------------------------------|
|--5-----------------5-----5-----5-----7-----------------7-----7-----7-----|


  G5                                  A5
   |--3--|  |--3--|  |--3--|  |--3--|  |--3--|  |--3--|  |--3--|  |--3--|
   S  S  S  S  S  S  S  S  S  S  S  S  S  S  S  S  S  S  S  S  S  S  S  S
|-------------------------------------------------------------------------|
|-------------------------------------------------------------------------|
|-17-16-14----------------------------------------------------------------|
|----------17-16-14-17-16-14----------------------------------------------|
|----------------------------17-15-14-17-15-14----------17-15-14-17-15-14-|
|----------------------------------------------17-15-14-------------------|
|
|                    PM---------|                        PM---------|
|                    |-----3-----|                       |-----3-----|
|  Q                 E     E     E     Q                 E     E     E
|-------------------------------------------------------------------------|
|-------------------------------------------------------------------------|
|-------------------------------------------------------------------------|
|--5-----------------------------------7----------------------------------|
|--5-----------------------------------7----------------------------------|
|--3-----------------3-----3-----3-----5-----------------5-----5-----5----|


  F#5
                                                         ~~
   |--3--|  |--3--|  |--3--|  |--3--|  |--3--|  |--3--|
   S  S  S  S  S  S  S  S  S  S  S  S  S  S  S  S  S  S  Q
|---------------------------------------------------------------|
|---------------------------------------------------------------|
|-17-16-14------------------------------------------------------|
|----------17-16-14-17-16-14------------------------------------|
|----------------------------17-15-14-17-15-14------------------|
|----------------------------------------------17-15-14-12------|
|
|                    PM--------------------------------------|
|                    |-----3-----|     |-----3-----|     |-3-|
|  Q                 E     E     E     E     E     E     E E E
|---------------------------------------------------------------|
|---------------------------------------------------------------|
|---------------------------------------------------------------|
|--4-----------------------------------------------------4-4-4--|
|--4-----------------------------------4-----4-----4-----4-4-4--|
|--2-----------------2-----2-----2-----2-----2-----2-----2-2-2--|


 Bridge
  (E(A(A(E5)                                        (E(A(A(E5)
            PM----------------------------------|             PM--------|
  |-3-|     |-3-| |-3-|   |-3-| |-3-| |-3-| |-3-|   |-3-|     |-3-| |-3-|
  E E E E E E E E E E E   E E E E E E E E E E E E   E E E E E E E E E E E
|-----------------------|-------------------------|-----------------------|
|-----------------------|-------------------------|-----------------------|
|-----------------------|-------------------------|-----------------------|
|-2-0-1-2---------------|-------------------------|-2-0-1-2---------------|
|-2-0-1-2---------------|-------------------------|-2-0-1-2---------------|
|-----------0-0-0-0-0-0-|-0-0-0-0-0-0-0-0-0-0-0-0-|-----------0-0-0-0-0-0-|
|
| |-3-|                                             |-3-|
| E E E E E Q     Q       W                         E E E E E Q     Q
|-----------------------|-------------------------|-----------------------|
|-----------------------|-------------------------|-----------------------|
|-----------------------|-------------------------|-----------------------|
|-2-0-1-2---------------|-------------------------|-2-0-1-2---------------|
|-2-0-1-2---------------|-------------------------|-2-0-1-2---------------|
|-----------------------|-------------------------|-----------------------|


        C5   A#5  (E(A(A(E5)
  PM--|                     PM----------------------------------|
  |-3-|           |-3-|     |-3-| |-3-|   |-3-| |-3-| |-3-| |-3-|
  E E E H    Q    E E E E E E E E E E E   E E E E E E E E E E E E
|---------------|-----------------------|--------------------------|
|---------------|-----------------------|--------------------------|
|---------------|-----------------------|--------------------------|
|-------5----3--|-2-0-1-2---------------|--------------------------|
|-------3----1--|-2-0-1-2---------------|--------------------------|
|-0-0-0---------|-----------0-0-0-0-0-0-|-0-0-0-0-0-0-0-0-0-0-0-0--|
|
|                 |-3-|
| Q     H    Q    E E E E E Q     Q       W
|---------------|-----------------------|--------------------------|
|---------------|-----------------------|--------------------------|
|---------------|-----------------------|--------------------------|
|-------5----3--|-2-0-1-2---------------|--------------------------|
|-------3----1--|-2-0-1-2---------------|--------------------------|
|---------------|-----------------------|--------------------------|


  (E(A(A(E5)                    C5   A#5
            PM----------------|
  |-3-|     |-3-| |-3-|   |-3-|
  E E E E E E E E E E E   E E E H    Q
|-----------------------|---------------|
|-----------------------|---------------|
|-----------------------|---------------|
|-2-0-1-2---------------|-------5----3--|
|-2-0-1-2---------------|-------3----1--|
|-----------0-0-0-0-0-0-|-0-0-0---------|
|
| |-3-|
| E E E E E Q     Q       Q     H    Q
|-----------------------|---------------|
|-----------------------|---------------|
|-----------------------|---------------|
|-2-0-1-2---------------|-------5----3--|
|-2-0-1-2---------------|-------3----1--|
|-----------------------|---------------|


 Verse
  (E5)  (A(A(E5)  (A(A#5(E5)  (A(A(E5)
  Gtrs I, II
                                      PM--|
      |-3-|     |-3-|       |-3-|     |-3-|
  E E E E E E E E E E   E E E E E E E E E E
|---------------------|---------------------|
|---------------------|---------------------|
|---------------------|---------------------|
|-2---2-0-1-2---2-0-1-|-2---2-0-1-2---------|
|-2---2-0-1-2---2-0-1-|-2---2-0-1-2---------|
|---------------------|---------------1-1-1-|


  (E5)  (A(A(E5)  (A(A#5(E5)  (A(A(E5)
                                      PM--|
      |-3-|     |-3-|       |-3-|     |-3-|
  E E E E E E E E E E   E E E E E E E E E E
|---------------------|----------------------|
|---------------------|----------------------|
|---------------------|----------------------|
|-2---2-0-1-2---2-0-1-|-2---2-0-1-2----------|
|-2---2-0-1-2---2-0-1-|-2---2-0-1-2----------|
|---------------------|---------------1-1-1--|


                                        PM--|
        |-3-|     |-3-|       |-3-|     |-3-|
    E E E E E E E E E E   E E E E E E E E E E
||----------------------|---------------------|
||o---------------------|---------------------|
||----------------------|---------------------|
||--2---2-0-1-2---2-0-1-|-2---2-0-1-2---------|
||o-2---2-0-1-2---2-0-1-|-2---2-0-1-2---------|
||----------------------|---------------1-1-1-|


                                      PM--|
      |-3-|     |-3-|       |-3-|     |-3-|
  E E E E E E E E E E   E E E E E E E E E E
|---------------------|---------------------|
|---------------------|---------------------|
|---------------------|---------------------|
|-2---2-0-1-2---2-0-1-|-2---2-0-1-2---------|
|-2---2-0-1-2---2-0-1-|-2---2-0-1-2---------|
|---------------------|---------------1-1-1-|


   Pre chorus
    Gtr I
    PM----------------------------------------------|
    |-3-| |-3-| |-3-| |-3-|   |-3-| |-3-| |-3-| |-3-|
    E E E E E E E E E E E E   E E E E E E E E E E E E
||--------------------------|--------------------------||
||o-------------------------|-------------------------o||
||--------------------------|--------------------------||
||--------------------------|--------------------------||
||o-------------------------|-------------------------o||
||--0-0-0-0-0-0-0-0-0-0-0-0-|-3-3-3-2-2-2-3-3-3-5-5-5--||
|
|   Gtr II
|   PM----------------------------------------------|
|   |-3-| |-3-| |-3-| |-3-|   |-3-| |-3-| |-3-| |-3-|
|   E E E E E E E E E E E E   E E E E E E E E E E E E
||--------------------------|--------------------------||
||o-------------------------|-------------------------o||
||--------------------------|--------------------------||
||--------------------------|--------------------------||
||o-------------------------|-2-2-2-0-0-0-2-2-2-3-3-3-o||
||--0-0-0-0-0-0-0-0-0-0-0-0-|--------------------------||


 Chorus
  G5          B5              A5        C5
  PM--------------------------------------------------
  |-3-| |-3-| |-3-| |-3-|   |-3-| |-3-|  |-3-| |-3-|
  E E E E E E E E E E E E   E E E E E E  E E E E E E
|-------------------------|--------------------------|
|-------------------------|--------------------------|
|-------------------------|--------------------------|
|-------------------------|--------------------------|
|-------------2-2-2-2-2-2-|--------------3-3-3-3-3-3-|
|-3-3-3-3-3-3-------------|-5-5-5-5-5-5--------------|
|
| H           H             H            H
|-------------------------|--------------------------|
|-------------------------|--------------------------|
|-------------------------|--------------------------|
|-------------------------|--------------------------|
|-5-----------9-----------|-7-----------10-----------|
|-3-----------7-----------|-5------------8-----------|


  G5        C5              A5          G5    F#5
 -------------------------------------------------|
  |-3-| |-3-| |-3-| |-3-|   |-3-| |-3-| |-3-| |-3-|
  E E E E E E E E E E E E   E E E E E E E E E E E E
|-------------------------|----------------------------|
|-------------------------|----------------------------|
|-------------------------|----------------------------|
|-------------------------|----------------------------|
|-------------2-2-2-2-2-2-|----------------------------|
|-3-3-3-3-3-3-------------|-5-5-5-5-5-5-3-3-3-2-2-2----|
|
| H           H             H           Q     Q
|-------------------------|----------------------------|
|-------------------------|----------------------------|
|-------------------------|----------------------------|
|-------------------------|----------------------------|
|-5-----------9-----------|-7-----------5-----4--------|
|-3-----------7-----------|-5-----------3-----2--------|


  G5          B5            A5        C5             G5
  PM--------------------------------------------------
  |-3-| |-3-| |-3-| |-3-|   |-3-| |-3-|  |-3-| |-3-|
  E E E E E E E E E E E E   E E E E E E  E E E E E E
|-------------------------|--------------------------|
|-------------------------|--------------------------|
|-------------------------|--------------------------|
|-------------------------|--------------------------|
|-------------2-2-2-2-2-2-|--------------3-3-3-3-3-3-|
|-3-3-3-3-3-3-------------|-5-5-5-5-5-5--------------|
|
| H           H             H            H
|-------------------------|--------------------------|
|-------------------------|--------------------------|
|-------------------------|--------------------------|
|-------------------------|--------------------------|
|-5-----------9-----------|-7-----------10-----------|
|-3-----------7-----------|-5------------8-----------|


              B5              E5        D5    C#5
 -------------------------------------------------|
  |-3-| |-3-| |-3-| |-3-|   |-3-| |-3-| |-3-| |-3-|
  E E E E E E E E E E E E   E E E E E E E E E E E E
|-------------------------|-----------------------------||
|-------------------------|----------------------------o||
|-------------------------|-----------------------------||
|-------------------------|-----------------------------||
|-------------2-2-2-2-2-2-|-7-7-7-7-7-7-5-5-5-4-4-4----o||
|-3-3-3-3-3-3-------------|-----------------------------||
|
| H           H             H           Q     Q
|-------------------------|-----------------------------||
|-------------------------|----------------------------o||
|-------------------------|-----------------------------||
|-------------------------|-9-----------7-----6---------||
|-5-----------9-----------|-7-----------5-----4--------o||
|-3-----------7-----------|-----------------------------||


 Outro
  N.C.
  Gtrs I, II
            PM----------------------------------|
  |-3-|     |-3-| |-3-|   |-3-| |-3-| |-3-| |-3-|
  E E E E E E E E E E E   E E E E E E E E E E E E
|-----------------------|-------------------------|
|-----------------------|-------------------------|
|-----------------------|-------------------------|
|-2-0-1-2---------------|-------------------------|
|-2-0-1-2---------------|-------------------------|
|-----------0-0-0-0-0-0-|-0-0-0-0-0-0-0-0-0-0-0-0-|


  N.C.
            PM----------------------------------|
  |-3-|     |-3-| |-3-|   |-3-| |-3-| |-3-| |-3-|
  E E E E E E E E E E E   E E E E E E E E E E E E
|-----------------------|--------------------------|
|-----------------------|--------------------------|
|-----------------------|--------------------------|
|-2-0-1-2---------------|--------------------------|
|-2-0-1-2---------------|--------------------------|
|-----------0-0-0-0-0-0-|-0-0-0-0-0-0-0-0-0-0-0-0--|


  N.C.                                              N.C.
            PM----------------------------------|
  |-3-|     |-3-| |-3-|   |-3-| |-3-| |-3-| |-3-|   |-3-|
  E E E E E E E E E E E   E E E E E E E E E E E E   E E E E E H
|-----------------------|-------------------------|----------------*|
|-----------------------|-------------------------|----------------*|
|-----------------------|-------------------------|----------------*|
|-2-0-1-2---------------|-------------------------|-2-0-1-2--------*|
|-2-0-1-2---------------|-------------------------|-2-0-1-2--------*|
|-----------0-0-0-0-0-0-|-0-0-0-0-0-0-0-0-0-0-0-0-|----------------*|



Duration Legend
---------------
W - whole; H - half; Q - quarter; E - 8th; S - 16th; T - 32nd; X - 64th; a - acciaccatura
+ - note tied to previous; . - note dotted; .. - note double dotted
Uncapitalized letters represent notes that are staccato (1/2 duration)
Irregular groupings are notated above the duration line
Duration letters will always appear directly above the note/fret number it represents the
duration for.  Duration letters with no fret number below them represent rests.  Multi-
bar rests are notated in the form Wxn, where n is the number of bars to rest for.  Low
melody durations appear below the staff

Tablature Legend
----------------
 h   - hammer-on
 p   - pull-off
 b   - bend
 pb  - pre-bend
 r   - bend release (if no number after the r, then release immediately)
 /\  - slide into or out of (from/to "nowhere")
 s   - legato slide
 S   - shift slide
 - natural harmonic
[n]  - artificial harmonic
n(n) - tapped harmonic
 ~   - vibrato
 tr  - trill
 T   - tap
 TP  - trem. picking
 PM  - palm muting
\n/  - tremolo bar dip; n = amount to dip
 \n  - tremolo bar down
 n/  - tremolo bar up
/n\  - tremolo bar inverted dip
 =   - hold bend; also acts as connecting device for hammers/pulls
 <> - volume swell (louder/softer)
 x   - on rhythm slash represents muted slash
 o   - on rhythm slash represents single note slash

Misc Legend
-----------
 |  - bar
||  - double bar
||o - repeat start
o|| - repeat end
*|  - double bar (ending)
 :  - bar (freetime)
 $  - Segno
 &  - Coda
Tempo markers -  = BPM(8/16=s8/s16), where s8 = swing 8ths, s16 = swing 16ths

Добавлено: 26.07.2012
Вам также может быть интересно:
Другие материалы по этой песне:

Страница создана 13.03.2012
http://primanota.ru/jag-panzer/the-scarlet-letter-chords.htm
Привет, Гость.
Предлагаем пройти революционный курс по гитаре.
Подарок от PrimaNota.Ru, забирай!