PrimaNota.ru - самый крупный в мире бесплатный архив песенных текстов, аккордов, табулатур и нот


Jag Panzer - Battered And Bruised - таба, видео

Регистрация Запомнить меня
Войти через:  Facebook Google Twitter Vk Yandex Mail.ru

Jag Panzer - Battered And Bruised - таба, видео

Печатать
Просмотров: 121
Уроки эстрадного вокала в Санкт-Петербурге
Gtr I (A# D# G# C# F# A# D#) - 'Untitled'

    Q=135
   4/4
    Gtr I
    S S E S S  E S S S S S S S S   S S E S S  E S S S S S S S S
||-------------------------------|-------------------------------|
||-------------------------------|-------------------------------|
||o------------------------------|-------------------------------|
||------9-----10-----------------|-----9-----10------------------|
||o-----7------7-----------------|-----7------7------------------|
||--0-0---0-0----0-0-0-0-0-0-0-0-|-0-0---0-0----0-0-0-0-0-0-0-0--|
||-------------------------------|-------------------------------|


  S S E S S  E S S S S S S S S   E S S E S S E E E E
|------------------------------|----------------------||
|------------------------------|----------------------||
|------------------------------|---------------------o||
|-----9-----10-----------------|-9-----9-----5-4-2-2--||
|-----7------7-----------------|-5-----5-----2-2-2-2-o||
|-0-0---0-0----0-0-0-0-0-0-0-0-|---0-0---0-0-------0--||
|------------------------------|----------------------||


    Q  S S E. S S S S S S S   Q  S S E. S S S S S S S
||--------------------------|--------------------------|
||--------------------------|--------------------------|
||o-------------------------|--------------------------|
||--4-----------------------|-5------------------------|
||o-2-----------------------|-3------------------------|
||-----0-0-0--0-0-0-0-0-0-0-|----0-0-0--0-0-0-0-0-0-0--|
||--------------------------|--------------------------|


  Q  S S E. S S S S S S S   E S S E S S E S S Q
|-------------------------|-----------------------||
|-------------------------|-----------------------||
|-------------------------|----------------------o||
|-7-----------------------|-4-----------5---------||
|-5-----------------------|-2-----5-----3-----7--o||
|----0-0-0--0-0-0-0-0-0-0-|---0-0-3-0-0---0-0-5---||
|-------------------------|-----------------------||


    E E E E E E E E   +E  E E E E E E E   E E E E E E E E   E E E E E E Q
||------------------|-------------------|-----------------|-------0----------||
||------------------|-------------------|-----------------|-----0---0--------||
||o-----0-------0---|-------0-------0---|-----0-------0---|---0-------0-----o||
||----4---4---4-----|-----4---4---4---4-|---4---4---4-----|-4-----------4----||
||o-----------------|-------------------|-----------------|-----------------o||
||--2-------3-----0-|-(0)---------------|-2---------------|------------------||
||------------------|-----------3-------|---------3-----1-|------------------||


    E S S E E +E  E +E  E   +E  E E S S E S S Q    E S S E E +E  E +E  E
||------------------------|----------------------|------------------------|
||------------------------|----------------------|------------------------|
||o-----------------------|----------------------|------------------------|
||--4-4-4-4-4-(4)-4-(4)-4-|-(4)-4-4-4-4-7-7-7-7--|-4-4-4-4-4-(4)-4-(4)----|
||o-2-2-2-2-5-(5)-0-(0)-2-|-(2)-2-2-2-2-5-5-5-4--|-2-2-2-2-5-(5)-0-(0)-4--|
||------------------------|----------------------|---------------------2--|
||------------------------|----------------------|------------------------|


  +E  E E S S E S S Q
|-------------------------||
|-------------------------||
|------------------------o||
|-------------------2-----||
|-(4)-4-4-4-4-5-5-5-0----o||
|-(2)-2-2-2-2-3-3-3-------||
|-------------------------||


    E S S E E +E  E +E  S S   H    E E Q    E S S E E +E  E +E  E
||--------------------------|-------------|-----------------------|
||--------------------------|-------------|-----------------------|
||o-------------------------|-------------|-----------------------|
||--------------------------|-------------|-----------------------|
||o-4-4-4-4-4-(4)-4-(4)-4---|------x------|-4-4-4-4-4-(4)-4-(4)---|
||--2-2-2-2-3-(3)-0-(0)-2---|--------3-3--|-2-2-2-2-3-(3)-0-(0)-3-|
||--------------------------|--------1-1--|---------------------1-|


  +E  E E S S E S S Q      E S S E E +E  E +E  E   +E  E E S S E S S Q
|-----------------------||-----------------------|-----------------------|
|-----------------------||-----------------------|-----------------------|
|----------------------o||-----------------------|-----------------------|
|-----------------------||-----------------------|-----------------------|
|----------------------o||-4-4-4-4-4-(4)-4-(4)-4-|-(4)-4-4-4-4-----------|
|-(3)-3-3-3-3-3-3-3-3---||-2-2-2-2-3-(3)-0-(0)-2-|-(2)-2-2-2-2-3-3-3-3---|
|-(1)-1-1-1-1-4-1-1-4---||-----------------------|-------------1-1-1-1---|


                  |-3-| |-3-|
  S S S S S S S S E E E E E E
|-----------------------------|
|-----------------------------|
|-----------------------------|
|-----------------------------|
|-0-0-0-0-2-2-2-2-4-4-4-4-4-4-|
|-2-2-2-2-3-3-3-3-5-5-5-6-6-6-|
|-----------------------------|


  E E E E E E  E  E    E  E E E  E  E E E
|---------0-0-------|-------0-0-----------|
|---------0-0-------|-------0-0-----------|
|-------------------|---------------------|
|-9-9-9-9-----12-12-|-11-11-----12-12-7-7-|
|-x-x-x-x------x--x-|--x--x---------------|
|-7-7-7-7-----10-10-|--9--9-----10-10-5-5-|
|-------------------|---------------------|


  E E E E E E E E   E E E E E E  E  E
|---------0-0-----|---------0-0-------|
|---------0-0-----|---------0-0-------|
|-----------------|-------------------|
|-5-5-5-5-----7-5-|-4-4-4-4-----10-10-|
|-----------------|-------------------|
|-3-3-3-3-----5-3-|-2-2-2-2------8--8-|
|-----------------|-------------------|


  E E E E E E  E  E    E  E E E  E  E  E  E
|---------0-0-------|-------0-0-------------|
|---------0-0-------|-------0-0-------------|
|-------------------|-----------------------|
|-9-9-9-9-----12-12-|-11-11-----12-12-14-14-|
|-x-x-x-x------x--x-|--x--x-----------------|
|-7-7-7-7-----10-10-|--9--9-----10-10-12-12-|
|-------------------|-----------------------|


   E  E  E  E E E  E  E    E  E  E  E  E  E  E  E
|-------------0-0-------|-------------------------|
|-------------0-0-------|-------------------------|
|-----------------------|-------------------------|
|-17-17-17-17-----19-17-|-16-16-16-16-13-13-13-13-|
|-----------------------|-------------------------|
|-15-15-15-15-----17-15-|-14-14-14-14-11-11-11-11-|
|-----------------------|-------------------------|


   E  E  E  E E E  E  E    E  E E E  E  E  E  E
|-------------0-0-------|-------0-0-------------|
|-------------0-0-------|-------0-0-------------|
|-----------------------|-----------------------|
|-12-12-12-12-----16-16-|-14-14-----16-16-11-11-|
|--x--x--x--x------x--x-|--x--x-----------------|
|-10-10-10-10-----14-14-|-12-12-----14-14--9--9-|
|-----------------------|-----------------------|


  E E E E E E  E E   E E E E E E  E  E
|---------0-0------|---------0-0-------|
|---------0-0------|---------0-0-------|
|------------------|-------------------|
|-9-9-9-9-----11-9-|-7-7-7-7-----14-14-|
|------------------|-------------------|
|-7-7-7-7------9-7-|-5-5-5-5-----12-12-|
|------------------|-------------------|


   E  E  E  E E E  E  E    E  E E E  E  E  E  E
|-------------0-0-------|-------0-0-------------|
|-------------0-0-------|-------0-0-------------|
|-----------------------|-----------------------|
|-12-12-12-12-----16-16-|-14-14-----16-16-17-17-|
|--x--x--x--x------x--x-|--x--x-----------------|
|-10-10-10-10-----14-14-|-12-12-----14-14-15-15-|
|-----------------------|-----------------------|


   E  E  E  E E E  E  E    E  E  E  E  E  E  E  E
|-------------0-0-------|-------------------------|
|-------------0-0-------|-------------------------|
|-----------------------|-------------------------|
|-21-21-21-21-----23-21-|-19-19-19-19-16-16-16-16-|
|-----------------------|-------------------------|
|-19-19-19-19-----21-19-|-17-17-17-17-14-14-14-14-|
|-----------------------|-------------------------|


                        |--3--|
    E.  T  T  E  Q   E  E  E  E
|-\14--15-14----14--------------|
|------------17-----15----------|
|----------------------18-14----|
|----------------------------16-|
|-------------------------------|
|-------------------------------|
|-------------------------------|


   |------3-------|  |------3-------|  |------3-------|
   S  S  S  S  S  S  S  S  S  S  S  S  S  S  S  S  S  S  Q
|-19-14-15-19-15-14------------------------------------------|
|------------------------------------------------------------|
|------------------------------------------------------------|
|-------------------21-16-17-21-17-16------------------------|
|-------------------------------------------------------15---|
|-------------------------------------19-14-15-19-15-14------|
|------------------------------------------------------------|


   S  S  S  S  S  S  S  S  S  S  S  S  Q         +E   S  S  H.
|---------------------------------------------|-------------------|
|---------------------------------------------|-------------------|
|----------------------------14----16-16b17===|=(16)-16-14-16-----|
|----------14----16-14-17-16----17------------|-------------------|
|-14-17-15----17------------------------------|-------------------|
|---------------------------------------------|-------------------|
|---------------------------------------------|-------------------|


   S  S  S  S  S  S  S  S  S  S  S  S  S  S  S  S
|-------10-14-------10-12-------10-15-------10-14-|
|-------------------------------------------------|
|-11-12-------11-12-------11-12-------11-12-------|
|-------------------------------------------------|
|-------------------------------------------------|
|-------------------------------------------------|
|-------------------------------------------------|


   T  T  T  T  T  T  T  T  T  T  T  T T  T  T  T T  T  T T  T T  T  T T  E..
|-14-12-10-----------------------------------------------8-11-8---------------|
|----------13-12-10-12-13-12-10-----------------------10--------10------------|
|-------------------------------12-11-9-11-12-11-9-11--------------11-8-11----|
|-----------------------------------------------------------------------------|
|-----------------------------------------------------------------------------|
|-----------------------------------------------------------------------------|
|-----------------------------------------------------------------------------|


          |---------3----------|  |-------3--------|
    Q.    S  S  S  S  S  S  S  S  S  S  S  S  S S  S
|-/17----14h15h17p15p14p12h14h15-10h12h14p12p10p8h10h|
|----------------------------------------------------|
|----------------------------------------------------|
|----------------------------------------------------|
|----------------------------------------------------|
|----------------------------------------------------|
|----------------------------------------------------|


      |------3-------| |---3---| |---3---|
   Q  S S  S S S S S S S S S S S S S S S S
|-12--7h8h10p8p7p5h7h8-5h7h8p7p5-----------|
|--------------------------------8p7p5h7h8-|
|------------------------------------------|
|------------------------------------------|
|------------------------------------------|
|------------------------------------------|
|------------------------------------------|


  |----3----| |----3----| |----3----| |----3----|   |----3----|
  S S S S S S S S S S S S S S S S S S S S S S S S   S S S S S S H.
|-5h7h8p7p5---------------------------------------|-------------------|
|-----------8p7p5---------------------------------|-------------------|
|-----------------7p5p4-----------4h5h7p5p4-------|-------------------|
|-----------------------7p5p4h5h7-----------7p5p4-|-------------------|
|-------------------------------------------------|-7p5p3-------------|
|-------------------------------------------------|-------7p5p3-2-----|
|-------------------------------------------------|-------------------|


  S S S S S S S S S S S S S S  S S
|----------------------------------|
|----------------------------------|
|----------------------------------|
|-------4-5-7-9-7-5--------------7-|
|-3-5-7-------------9-7-5-7-9-10---|
|----------------------------------|
|----------------------------------|


                       |-----3-----| |------3------|
  S  S  S  S S  S  S S S S  S S S  S S  S  S S  S  S
|----------------------------------------------------|
|----------------------------------------------------|
|----------------------------------------------------|
|-9-10-12-10-9----------------7-9-10---------9-10-12-|
|--------------12-10-9-7-9-10--------9-10-12---------|
|----------------------------------------------------|
|----------------------------------------------------|

  S S  S S S  S  S  S S  S  S S  S  S  S  S    S  S  S  S  S  S  S  S  S  S    S
|-------------------------------------------|-------------------------------------|
|-------------------------------------------|-------------------------------------|
|-------------------------------------------|-------------------------------------|
|--------7-9-10-12-10-9------------------10-|-12-14-16-14-12-------------------14-|
|-7-9-10----------------12-10-9-10-12-14----|----------------15-14-12-14-15-17----|
|-------------------------------------------|-------------------------------------|
|-------------------------------------------|-------------------------------------|

------------------------|
------------------------|
------------------------|
16-17----------16-17-19-|
------15-17-19----------|
------------------------|
------------------------|


   |------6-------|  |--------6--------|
   S  S  S  S  S  S  S  S  S  S     S  S  H
|-------------------17-19-20-19b20r17-19-19----*|
|----------17-19-20----------------------------*|
|-16-17-19-------------------------------------*|
|----------------------------------------------*|
|----------------------------------------------*|
|----------------------------------------------*|
|----------------------------------------------*|

Duration Legend
---------------
W - whole; H - half; Q - quarter; E - 8th; S - 16th; T - 32nd; X - 64th; a - acciaccatura
+ - note tied to previous; . - note dotted; .. - note double dotted
Uncapitalized letters represent notes that are staccato (1/2 duration)
Irregular groupings are notated above the duration line
Duration letters will always appear directly above the note/fret number it represents the
duration for.  Duration letters with no fret number below them represent rests.  Multi-
bar rests are notated in the form Wxn, where n is the number of bars to rest for.  Low
melody durations appear below the staff

Tablature Legend
----------------
 h   - hammer-on
 p   - pull-off
 b   - bend
 pb  - pre-bend
 r   - bend release (if no number after the r, then release immediately)
 /\  - slide into or out of (from/to "nowhere")
 s   - legato slide
 S   - shift slide
 - natural harmonic
[n]  - artificial harmonic
n(n) - tapped harmonic
 ~   - vibrato
 tr  - trill
 T   - tap
 TP  - trem. picking
 PM  - palm muting
\n/  - tremolo bar dip; n = amount to dip
 \n  - tremolo bar down
 n/  - tremolo bar up
/n\  - tremolo bar inverted dip
 =   - hold bend; also acts as connecting device for hammers/pulls
 <> - volume swell (louder/softer)
 x   - on rhythm slash represents muted slash
 o   - on rhythm slash represents single note slash

Misc Legend
-----------
 |  - bar
||  - double bar
||o - repeat start
o|| - repeat end
*|  - double bar (ending)
 :  - bar (freetime)
 $  - Segno
 &  - Coda
Tempo markers -  = BPM(8/16=s8/s16), where s8 = swing 8ths, s16 = swing 16ths
Добавлено: 08.04.2012
Другие материалы по этой песне:

Страница создана 08.04.2012
http://primanota.ru/jag-panzer/battered-and-bruised-chords.htm
Привет, Гость.
Предлагаем пройти революционный курс по гитаре.
Подарок от PrimaNota.Ru, забирай!