PrimaNota.ru - самый крупный в мире бесплатный архив песенных текстов, аккордов, табулатур и нот


Jaded Heart - Paid My Dues - таба, видео

Регистрация Запомнить меня
Войти через:  Facebook Google Twitter Vk Yandex Mail.ru

Jaded Heart - Paid My Dues - таба, видео

Печатать
Просмотров: 99
****************************************************
Jaded Heart - Paid My Dues (from Heluva Time album)
****************************************************

Tabbed by Andy (yalaki) on 8/12/05.
	         (Updated: 8/01/09)

This is only the second song I've tabbed (the first being The
Rumour by Savatage).

This is a really cool song, and as far as I can tell the first
Jaded Heart song to be tabbed and put online.

Any questions, comments, critisisms, suggestions: yalaki@hotmail.com

Make a request and maybe in a few months it'll be done!

********************************************************

Structure:

Intro
Verse 1
Chorus
Bridge Solo
Verse 2
Chorus
Guitar Solo
Bridge
Chorus
*key change*
->chorus/fade out

********************************************************


******
Intro:
******

Guitar plays: C#5 - B5 - A5 - B5 - C#5 

(keyboard arranged for guitar)

e:-----------------------------------------------------|
B:--2---------------------------------------2----------|
G:----1--------4----------2---2---4---4-------1--------|
D:------2--------4-1--------2-------4-----------2------|
A:--------4----------2----------------------------4----|
E:-----------------------------------------------------|


e:-----------------------------------------------------|
B:--2---------------------------------------2-----2----|
G:----1--------4----------2---2---4---4-------1--------|
D:------2--------4-1--------2-------4-----------2------|
A:--------4----------2---------------------------------|
E:-----------------------------------------------------|

***************
Intro - part 2:
***************

Guitars 1 & 2:

e:----------------------------|----------------------------|
B:----------------------------|----------------------------|
G:--\6------4----2---4---6----|---6------4----2---4---6----|
D:--\6------4----2---4---6----|---6------4----2---4---6----|
A:--\4------2----0---2---4----|---4------2----0---2---4----|
E:----------------------------|----------------------------|
||
e:---21~---19~-------------21~|---21~---19~-------------21~|
B:----------------------------|----------------------------|
G:-18----16------14--16--18---|-18----16------14--16--18---|
D:----------------------------|----------------------------|
A:----------------------------|----------------------------|
E:----------------------------|----------------------------|


********
Verse 1:
********


"I am knocked down, this is a crazy town..."


(the dots above the notes mean this should be played stoccato)

    .  .       .  .      .  .     .  .     .  .
e:-----------------------------------------------------|
B:-----------------------------------------------------|
G:--6--6-------4--4------2--2-----4--4-----6--6----t18-|
D:--6--6-------4--4------2--2-----4--4-----6--6--------|
A:--4--4-------2--2------0--0-----2--2-----4--4--4-----|
E:-----------------------------------------------------|

"'cos I'm too proud..."

    .  .       .  .      .  .     .  .     .  .
e:-----------------------------------------------------|
B:-----------------------------------------------------|
G:--6--6-------4--4------2--2-----4--4-----6--6--6\----|
D:--6--6-------4--4------2--2-----4--4-----6--6--6\----|
A:--4--4-------2--2------0--0-----2--2-----4--4--4\----|
E:-----------------------------------------------------|


*******
Chorus:
*******

Guitars 1&2:

"So I held my head high..."

e:-----------------------------------|-----------------------------------|
B:-----------------------------------|-----------------------------------|
G:--4h6---4h6---4h6---4h6-----4---6--|--6h8---6h8---6h8---6h8-----6---8--|
D:--4h6---4h6---4h6---4h6-----4---6--|--6h9---6h9---6h9---6h9-----6---9--|
A:-----------------------------------|-----------------------------------|
E:-----------------------------------|-----------------------------------|
||
e:-----------------------------------|-----------------------------------|
B:-----------------------------------|-----------------------------------|
G:-----------------------------------|-----------------------------------|
D:-----------------------------------|-----------------------------------|
A:--2-4-2-2-4-2-2-4-2-2-4-2-2-4-2-4--|--4-6-6-4-6-6-4-6-6-4-6-6-4-6-4-6--|
E:-----------------------------------|-----------------------------------|

"I made it... don't hate it..."

e:-----------------------------------|-----------------------------------|
B:-----------------------------------|-----------------------------------|
G:---8h9---8h9-------9h11--9h11------|---4h6---4h6---4h6---4h6-------6---|
D:---9-----9---------9h11--9h11------|---4h6---4h6---4h6---4h6-------6---|
A:-----------------------------------|-----------------------------------|
E:-----------------------------------|-----------------------------------|
||							  *=pinch harmonic
e:-----------------------------------|-----------------------------------|
B:-----------------------------------|-----------------------------------|
G:-----------------------------------|-----------------------------------|
D:-----------------------------------|-------------------------------*---|
A:---6-7-7-6-7-7-6-7-7-9-9-7-9-9-7---|---2-4-2-2-4-2-2-4-2-2-4-2-4---4---|
E:---------------------------------9-|-----------------------------------|




"I've done made it through..."

e:----------------------------|----------------------------|
B:----------------------------|----------------------------|
G:---6------4----2---4---6----|---6------4----2---4---6----|
D:---6------4----2---4---6----|---6------4----2---4---6----|
A:---4------2----0---2---4----|---4------2----0---2---4----|
E:----------------------------|----------------------------|

e:---21~---19~-------------21~|---21~---19~-------------21~|
B:----------------------------|----------------------------|
G:-18----16------14--16--18---|-18----16------14--16--18---|
D:----------------------------|----------------------------|
A:----------------------------|----------------------------|
E:----------------------------|----------------------------|



****************************
Bridge (little guitar solo):
****************************

Guitar 1:

    .  .       .  .      .  .     .  .     .  .
e:-----------------------------------------------------|
B:-----------------------------------------------------|
G:--6--6-------4--4------2--2-----4--4-----6--6--------|
D:--6--6-------4--4------2--2-----4--4-----6--6--------|
A:--4--4-------2--2------0--0-----2--2-----4--4--------|
E:-----------------------------------------------------|


Solo Guitar:

e:-------------------------------------------------------------------|
B:---9---------9-------------------*---------------------------------|
G:---11b13-----------11-9----------9~--------------------------------|
D:------------------------11-9-11-------11----9-11---9---------------|
A:-----------------------------------------11----------11p10p9\7-----|
E:---------------------------------------------------------------9~--|

e:-------9-------11-----------12-11-12---9-7-9~~\------|
B:-------------9---------------------------------------|
G:-----6------------------9---9--8--9----6-4-6~~\------|
D:---6-----6/9-------9-11------------------------------|
A:-----------------------------------------------------|
E:-----------------------------------------------------|

********
Verse 2:
********

"Well I'm still trusted everyday..."

    .  .       .  .      .  .     .  .     .  .
e:-----------------------------------------------------|
B:-----------------------------------------------------|
G:--6--6-------4--4------2--2-----4--4-----6--6--------|
D:--6--6-------4--4------2--2-----4--4-----6--6--------|
A:--4--4-------2--2------0--0-----2--2-----4--4--------|
E:-----------------------------------------------------|

"I'm no punk and i can't get down..."

    .  .       .  .      .  .     .  .     .  .
e:-----------------------------------------------------|
B:-----------------------------------------------------|
G:--6--6-------4--4------2--2-----4--4-----6--6--------|
D:--6--6-------4--4------2--2-----4--4-----6--6--------|
A:--4--4-------2--2------0--0-----2--2-----4--4--x\----|
E:-----------------------------------------------x\----|


******
Chorus
******

Guitars 1&2:

"So I held my head high..."

e:-----------------------------------|-----------------------------------|
B:-----------------------------------|-----------------------------------|
G:--4h6---4h6---4h6---4h6-----4---6--|--6h8---6h8---6h8---6h8-----6---8--|
D:--4h6---4h6---4h6---4h6-----4---6--|--6h9---6h9---6h9---6h9-----6---9--|
A:-----------------------------------|-----------------------------------|
E:-----------------------------------|-----------------------------------|
||
e:-----------------------------------|-----------------------------------|
B:-----------------------------------|-----------------------------------|
G:-----------------------------------|-----------------------------------|
D:-----------------------------------|-----------------------------------|
A:--2-4-2-2-4-2-2-4-2-2-4-2-2-4-2-4--|--4-6-6-4-6-6-4-6-6-4-6-6-4-6-4-6--|
E:-----------------------------------|-----------------------------------|


"I made it... don't hate it..."

e:-----------------------------------|-----------------------------------|
B:-----------------------------------|-----------------------------------|
G:---8h9---8h9-------9h11--9h11------|---4h6---4h6---4h6---4h6-------6---|
D:---9-----9---------9h11--9h11------|---4h6---4h6---4h6---4h6-------6---|
A:-----------------------------------|-----------------------------------|
E:-----------------------------------|-----------------------------------|
||							  *=pinch harmonic
e:-----------------------------------|-----------------------------------|
B:-----------------------------------|-----------------------------------|
G:-----------------------------------|-----------------------------------|
D:-----------------------------------|-------------------------------*---|
A:---6-7-7-6-7-7-6-7-7-9-9-7-9-9-7---|---2-4-2-2-4-2-2-4-2-2-4-2-4---4---|
E:---------------------------------9-|-----------------------------------|




"I've done made it through..."

e:----------------------------|----------------------------|
B:----------------------------|----------------------------|
G:---6------4----2---4---6----|---6------4----2---4---6----|
D:---6------4----2---4---6----|---6------4----2---4---6----|
A:---4------2----0---2---4----|---4------2----0---2---4----|
E:----------------------------|----------------------------|

e:---21~---19~-------------21~|---21~---19~-------------21~|
B:----------------------------|----------------------------|
G:-18----16------14--16--18---|-18----16------14--16--18---|
D:----------------------------|----------------------------|
A:----------------------------|----------------------------|
E:----------------------------|----------------------------|

*****
Solo:
*****

Guitar 1:

    .  .       .  .      .  .     .  .     .  .
e:-----------------------------------------------------|
B:-----------------------------------------------------|
G:--6--6-------4--4------2--2-----4--4-----6--6--------|
D:--6--6-------4--4------2--2-----4--4-----6--6--------|
A:--4--4-------2--2------0--0-----2--2-----4--4--------|
E:-----------------------------------------------------|

    .  .       .  .      .  .     .  .     .  .
e:-----------------------------------------------------|
B:-----------------------------------------------------|
G:--6--6-------4--4------2--2-----4--4-----6--6--------|
D:--6--6-------4--4------2--2-----4--4-----6--6--------|
A:--4--4-------2--2------0--0-----2--2-----4--4--------|
E:-----------------------------------------------------|

Solo Guitar:

e:-----------(12)pb14-----r12p11h12--------------------|
B:--------12-------------------------------------------|
G:--11h13---------------------------11h13--11h13--11---|
D:-----------------------------------------------------|
A:-----------------------------------------------------|
E:-----------------------------------------------------|


e:--9h11-------9-11-11b12--r11----------------------------------|
B:-------12---------------------12b14~---9----------------------|
G:-----------------------------------------11--9-----------9----|
D:-----------------------------------------------11---9------11-|
A:------------------------------------------------------11------|
E:--------------------------------------------------------------|


e:--------------------------------------------------------------|
B:---------12~~-------------------------------------------12~---|
G:---11b13-----13b11p9----11-b13r11-b13r11--p9------11b13-------|
D:---------------------11----------------------11-9-------------|
A:--------------------------------------------------------------|
E:--------------------------------------------------------------|

e:-----14-12------------------------------------------------------------|
B:--12-------14-12-14-12----------12------------------------------------|
G:-----------------------13-11-------13-11----------11-13-11------------|
D:-----------------------------14----------14-11-14----------14-11-14---|
A:----------------------------------------------------------------------|
E:----------------------------------------------------------------------|

e:-----------------12-------|
B:-----------12-14----14----|
G:-------11-----------------|
D:--(14)--------------------|
A:--------------------------|
E:--------------------------|

*******
Bridge: 
*******

"Took so long to bring me here..."

Guitars rest & come back in with A5 - B5 - C#5

(keyboard arranged for guitar)

e:-----------------------------------------------------|
B:--2---------------------------------------2----------|
G:----1--------4----------2---2---4---4-------1--------|
D:------2--------4-1--------2-------4-----------2------|
A:--------4----------2----------------------------4----|
E:-----------------------------------------------------|


e:-----------------------------------------------------|
B:--2---------------------------------------2-----2----|
G:----1--------4----------2---2---4---4-------1--------|
D:------2--------4-1--------2-------4-----------2------|
A:--------4----------2---------------------------------|
E:-----------------------------------------------------|

**************
Chorus/finale:
**************

Guitars 1&2:

"So I held my head high..."

Guitars 1&2:

"So I held my head high..."

e:-----------------------------------|-----------------------------------|
B:-----------------------------------|-----------------------------------|
G:--4h6---4h6---4h6---4h6-----4---6--|--6h8---6h8---6h8---6h8-----6---8--|
D:--4h6---4h6---4h6---4h6-----4---6--|--6h9---6h9---6h9---6h9-----6---9--|
A:-----------------------------------|-----------------------------------|
E:-----------------------------------|-----------------------------------|
||
e:-----------------------------------|-----------------------------------|
B:-----------------------------------|-----------------------------------|
G:-----------------------------------|-----------------------------------|
D:-----------------------------------|-----------------------------------|
A:--2-4-2-2-4-2-2-4-2-2-4-2-2-4-2-4--|--4-6-6-4-6-6-4-6-6-4-6-6-4-6-4-6--|
E:-----------------------------------|-----------------------------------|


"I made it... don't hate it..."

e:-----------------------------------|
B:-----------------------------------|
G:---8h9---8h9-------9h11--9h11------|
D:---9-----9---------9h11--9h11------|
A:-----------------------------------|
E:-----------------------------------|
||							  
e:-----------------------------------|
B:-----------------------------------|
G:-----------------------------------|
D:-----------------------------------|
A:---6-7-7-6-7-7-6-7-7-9-9-7-9-9-7---|
E:---------------------------------9-|

**bass fill**


**Key Change** (up a semi-tone)

Chorus->Fade out

Guitar 1 (repeat endlessly and fade out):

e:-----------------------|-----------------------|
B:-----------------------|-----------------------|
G:--7----5----3--5--7----|--7----5----3--5--7----|
D:--7----5----3--5--7----|--7----5----3--5--7----|
A:--5----3----1--3--5----|--5----3----1--3--5----|
E:-----------------------|-----------------------|

Guitar 2 (repeat the 3rd line until silent):

e:---22~---20~-------------22~|---22~---20~-------------22~|
B:----------------------------|----------------------------|
G:-19----17------15--17--19---|-19----17------15--17--19---|
D:----------------------------|----------------------------|
A:----------------------------|----------------------------|
E:----------------------------|----------------------------|

e:---22~---20~-------------22~|---22~---20~-------------22~|
B:----------------------------|----------------------------|
G:-19----17------15--17--19---|-19----17------15--17--19---|
D:----------------------------|----------------------------|
A:----------------------------|----------------------------|
E:----------------------------|----------------------------|

e:-----22b25r22-22-20--------22b25r22-22-20---------------22b25r22-22-20-----|
B:--------------------20---------------------20---------------------------20-|
G:-19---------------------17---------------------15-17-19--------------------|
D:---------------------------------------------------------------------------|
A:---------------------------------------------------------------------------|
E:---------------------------------------------------------------------------|


| /  slide up
| \  slide down
| h  hammer-on
| p  pull-off
| ~  vibrato
| *  harmonic
| x  Mute note
| b  Bend note
| r  Release bend
| pb Prebend note
===============================================================================
Добавлено: 27.07.2012
Вам также может быть интересно:
Другие материалы по этой песне:
  • Аккорды и текст

Страница создана 27.07.2012
http://primanota.ru/jaded-heart/paid-my-dues-chords.htm
Привет, Гость.
Предлагаем пройти революционный курс по гитаре.
Подарок от PrimaNota.Ru, забирай!