PrimaNota.ru - самый крупный в мире бесплатный архив песенных текстов, аккордов, табулатур и нот


Jaded Heart - Hole In My Heart - таба, видео

Регистрация Запомнить меня
Войти через:  Facebook Google Twitter Vk Yandex Mail.ru

Jaded Heart - Hole In My Heart - таба, видео

Печатать
Просмотров: 141
Уроки эстрадного вокала в Санкт-Петербурге
-------------------------------------------------------------------------------
			     Hole in my Heart - by Jaded Heart
-------------------------------------------------------------------------------
Tabbed by: Andy (yalaki) on 09/12/05
Email: yalaki@hotmail.com

This song has a great riff in the chorus. It's not too hard to play and sounds
great! It is from their Helluva Time album. Tuning: I have tabbed it for standard
tuning but there are one or two parts when some may prefer drop D tuning.

******
Intro:
******
e|--------------------------------------|-------------------------------------|
B|--------11-15-11~---h15~---11h15p11~\-|--11\--------------------------------|
G|---9/11-------------------------------|------11~-13~------------------------|
D|--------------------------------------|-------------------------------------|
A|--------------------------------------|-------------------------------------|
E|--------------------------------------|-------------------------------------|

"I feel this lonelyness deepen....but never again, No Way."

Let the 6 on the G string ring when you see (6).

e|-----------------------------|--------------------------------------|
B|-----------------------------|----------------------------7--6------|
G|-----------6---(6)-----------|----------6--(6)-(6)-8------------8~--|
D|-------4-6-4----3----8-------|------4-6-4---3---4--6-----(6)(6)(6)--|
A|---4/6------------4--6-------|--4/6---------------------------------|
E|-----------------------------|--------------------------------------|



e|-----------------------------|-------------------------------------|
B|-----------------------------|--------------------------6h7h9------|
G|-----------6---(6)-----------|----------6--(6)-(6)-8---------------|
D|-------4-6-4----3----8-------|------4-6-4---3---4--6---------------|
A|---4/6------------4--6-h9p6--|--4/6--------------------------------|
E|-----------------------------|-------------------------------------|

********
Verse 1:
********
"It's a lonely night in the city...I'll be there where you are."

Softly

e|--------------------|-------------------|------------------|--------------------|
B|--------------------|-------------------|------------------|--------------------|
G|--------------------|-------------------|------------------|-------------4------|
D|---8----6----4------|---8----6----4-----|---8----6----4----|---8----6----4------|
A|---8----6----2------|---8----6----2-----|---8----6----2----|---8----6----2------|
E|---6----4----2------|---6----4----2-----|---6----4----2----|---6----4-----------|

*******
Bridge:
*******
"Why can't you see that it makes me go down..."

e|---------------|-----------------------------|-------------------2---|--------------------|
B|---------------|-----------------7~----------|-----------4-----2-----|--------------------|
G|----4----------|-----6-----6-----6-----6-----|---4---4-4-4-----------|--------------------|
D|----4----------|-----4-----6-----4-----6-----|---4---4-4-4-4---------|--2-----------------|
A|----2----------|-4-4---4-4---4-4---4-4-------|---2---------4---------|--2--------2-2-2-2--|
E|---------------|-2-2---2-2---2-2---2-2-------|-------------2---------|--0--------0-0-0-0--|
									   pm.....

*******
Chorus:
*******
"While its a hole in my heart..."

e|-----------------------------|---------------------------|
B|-----------------------------|---------------------------|
G|-----------6----6------------|----------6--(6)----8------|
D|-------4-6-4----3-6--8-------|------4-6-4---3-----6------|
A|---4/6------------4--6-------|--4/6---------------6------|
E|-----------------------------|---------------------------|

e|-----------------------------|--------------------------------|
B|-----------------------------|---------------------------9-9--|
G|-----------6---(6)-----------|----------6---6----8--(8)--8-8--|
D|-------4-6-4----3-6--8-------|------4-6-4---3----6---6h9------|
A|---4/6------------4--6-------|--4/6---------------------------|
E|-----------------------------|--------------------------------|

********
Verse 2:
********
"Deep in my heart there's a fire..."

Softly

e|--------------------|-------------------|------------------|--------------------|
B|--------------------|-------------------|------------------|--------------------|
G|--------------------|-------------------|------------------|-------------4------|
D|---8----6----4------|---8----6----4-----|---8----6----4----|---8----6----4------|
A|---8----6----2------|---8----6----2-----|---8----6----2----|---8----6----2------|
E|---6----4----2------|---6----4----2-----|---6----4----2----|---6----4-----------|

*******
Bridge:
*******
"and take a look in the mirror..."

e|---------------|-----------------------------|-------------------2---|--------------------|
B|---------------|-----7~----------7~----------|-----------4-----2-----|--------------------|
G|----4----------|-----6-----6-----6-----6-----|---4---4-4-4-----------|--------------------|
D|----4----------|-----4-----6-----4-----6-----|---4---4-4-4-4---------|--2-----------------|
A|----2----------|-4-4---4-4---4-4---4-4-------|---2---------4---------|--2--------2-2-2-2--|
E|---------------|-2-2---2-2---2-2---2-2-------|-------------2---------|--0--------0-0-0-0--|

*******
Chorus:									   pm.....
*******
"While there's a hole in my heart..."

e|-----------------------------|---------------------------|
B|-----------------------------|---------------------------|
G|-----------6----6------------|----------6--(6)----8------|
D|-------4-6-4----3-6--8-------|------4-6-4---3-----6------|
A|---4/6------------4--6-------|--4/6----------------------|
E|-----------------------------|---------------------------|

e|-----------------------------|---------------------------|
B|-----------------------------|---------------------------|
G|-----------6----6------------|----------6--(6)----8------|
D|-------4-6-4----3-6--8-------|------4-6-4---3-----6------|
A|---4/6------------4--6-------|--4/6----------------------|
E|-----------------------------|---------------------------|

*******
Bridge:
*******
"Loving you is heaven, missing you is hell..."

e|------------------------------------------|
B|------------------------------------------|
G|--------------4---------4------6----------|
D|-------4-6-4--4----4----4--------8-7-6~---|
A|---4/6--------2----4----2-----------------|
E|-------------------2----------------------|

*******
Chorus:
*******
"While there it's a hole in my heart bleeding..."

e|-----------------------------|---------------------------|
B|-----------------------------|---------------------------|
G|-----------6----6------------|----------6--(6)----8------|
D|-------4-6-4----3-6--8-------|------4-6-4---3-----6------|
A|---4/6------------4--6-------|--4/6----------------------|
E|-----------------------------|---------------------------|

e|-----------------------------|----------------------------------|
B|-----------------------------|----------------------------------|
G|-----------6----6------------|----------6--(6)------------------|
D|-------4-6-4----3-6--8-------|------4-6-4---3---------4-6-4-----|
A|---4/6------------4--6-------|--4/6---------------4-6-------6---|
E|-----------------------------|----------------------------------|

******
Bridge:
*******					"Why can't you see..."
e|-------------------------------------|-------------------|--------------------------------------|
B|-------------------------------------|-------------------|-------------------------------4------|
G|-----6/8--6---------------------6/8--|------6/8--6--4----|------6/8--6---------------------6~---|
D|--8--6/8--6-------4--6----4---4------|---8--6/8--6--4----|---8--6/8--6------4--6-----4----------|
A|--6--4/6--4---x-x-4--6------6--------|---6--4/6--4--2----|---6--4/6--4--x-x-4--6---6---6--------|
E|--6-----------x-x-2--4---------------|---6---------------|---6----------x-x-2--4----------------|

e|------------------------------------------|
B|------------------------------------------|
G|------6/8--6------------------------------|
D|---8--6/8--6----9-8~--------------8-------|
A|---6--4/6--4---------9--8-9-8-6---6-------|
E|---6------------------------------6-------|

************
Guitar Solo:
************
This is in the best part accurate. I obviously slowed down the song a lot in places,
but even then it wasn't clear enough.

This is for two guitars (one solo, one rhythm) on alternate lines.

e|-----------------------------------------------------------------------------|
B|-------------------------------------------------------------9h11p9----9-11--|
G|--------------------11h13p11----11----------------11\---8-11--------11-------|
D|--------------11/13----------13----13-11----16-13----------------------------|
A|-----------------------------------------------------------------------------|
E|-----------------------------------------------------------------------------|

					 Softly
e|-----------------------------------------------------------------------------|
B|-----------------------------------------------------------------------------|
G|---12-13-12----------------------------------6--------6----------------------|
D|---------------------------------------------4--------6------6---------------|
A|---------------------------------------------4--------4------6---------------|
E|-------------------------------------------------------------4---------------|

**

e|---------------------------------------------------------------------------|
B|-------------------12h14--12----------14-----------------------------------|
G|--11-13--11h13-11------------11-13~------13---11---------------------------|
D|-----------------------------------------------------11-13--11\------------|
A|--------------------------------------------------14-----------------------|
E|---------------------------------------------------------------------------|

e|---------------------------------------------------------------------------|
B|---------------------------------9-----------------------------------------|
G|-----6------6--------------------8-------------------6------6--------------|
D|-----4------6--------------------6-------------------4------6--------------|
A|-----4------4--------------------6-------------------4------4--------------|
E|---------------------------------------------------------------------------|

**

e|-18h21\---17-16-14-16h17p14h16--14-------17--------------------------------|
B|-----------------------------------14-16----16-14--------------------------|
G|--------------------------------------------------15-13-13h15p13-----------|
D|-----------------------------------------------------------------16-15-13--|
A|---------------------------------------------------------------------------|
E|---------------------------------------------------------------------------|

e|---------------------------------------------------------------------------|
B|---------------------------------------------------------------------------|
G|-----------------------------------------6-------6-------------------------|
D|--6--------------------------------------4-------6-------------------------|
A|--6--------------------------------------4-------4-------------------------|
E|--4------------------------------------------------------------------------|

**


e|----------------------------------------------14h18p14h16h18p16p14---------|
B|----------14~-----------16~--14----16---14-16-----------------------14-16--|
G|--11---15------13----15---------15-----------------------------------------|
D|--11-----------11----------------------------------------------------------|
A|---------------------------------------------------------------------------|
E|---------------------------------------------------------------------------|

e|---------------------------------------------------------------------------|
B|--7------------7-----------------------------------------------------------|
G|--6------------6---------------------------------------------6-------------|
D|--4------------4---------------------------------------------4-------------|
A|--4------------4--------------------------4-4------------------------------|
E|------------------------------------------2-2------------------------------|

**

e|--14-----------------------------------------------------------------------|
B|-----14b16--14--------------------14---------------------------------------|
G|---------------15-13-------13b15-----15-13---------------------------------|
D|---------------------16-13-----------------16p15p13-16-13------------------|
A|----------------------------------------------------------16-13-16---------|
E|---------------------------------------------------------------------------|

e|---------------------------------------------------------------------------|
B|---------------------------------------------------------------------------|
G|-----------------------6-------------------------------------6-------------|
D|-----------------------6-------------------------------------4-------------|
A|------4-4----------------------------------4-4-----------------------------|
E|------2-2----------------------------------2-2-----------------------------|

**


e|--------------------------------------------------------------------------------|
B|--------------------------------------------------------------------------------|
G|--/15\11/15\11/15\11/15\11-15\----11-------11----11----11----11----11----11-----|
D|-------------------------------------11h13----11----13----11----13----11----13--|
A|--------------------------------------------------------------------------------|
E|--------------------------------------------------------------------------------|

e|--------------------------------------------------------------------------------|
B|--------------------------------------------------------------------------------|
G|-----------------6----------------4---------------------------------------------|
D|-----------------6----------------4---------------------------------------------|
A|--4-4-----------------------------2---------------------------------------------|
E|--2-2---------------------------------------------------------------------------|

**

e|---------------------------------9h11h14p9h11p9h14p9--|
B|-----------------------------12-----------------------|
G|--11-------11-------------13--------------------------|
D|-----11-13----13-11----13-----------------------------|
A|--------------------14--------------------------------|
E|------------------------------------------------------|

e|------------------------------------------------------|
B|------------------------------------------------------|
G|------------------------------------------------------|
D|-4----------------------------------------------------|
A|-4----------------------------------------------------|
E|-2----------------------------------------------------|

**

e|------------11-13-14-16-18-21--18h21-18h21-18h21-18h21--|
B|-----14b16----------------------------------------------|
G|--------------------------------------------------------|
D|--------------------------------------------------------|
A|--------------------------------------------------------|
E|--------------------------------------------------------|

e|--------------------------------------------------------|
B|--------------------------------------------------------|
G|--------------------------------------------------------|
D|-----------2--------------------------------------------|
A|-----------2--------------------------------------------|
E|-----------0--------------------------------------------|

end of guitar solo!

*******
Bridge:
*******
Now towards the end of the song.

e|----------------------------------|-------------------------------|
B|----------------------------------|-------------------------------|
G|-----------6-6-6-6----------------|----------6-6-6-6----8---------|
D|-------4-6-4-4-4-3-----6-6-6-8----|------4-6-4-4-4-3----6---------|
A|---4/6-------------6-4-4-4-4-6----|--4/6----------------6-----x\--|
E|----------------------------------|---------------------------x\--|

*******
Chorus:
*******
"while it's a hole in a my heart..."

e|-----------------------------|---------------------------|
B|-----------------------------|---------------------------|
G|-----------6----6------------|----------6--(6)----8------|
D|-------4-6-4----3-6--8-------|------4-6-4---3-----6------|
A|---4/6------------4--6-------|--4/6---------------6------|
E|-----------------------------|---------------------------|

e|-----------------------------|---------------------------|
B|-----------------------------|---------------------------|
G|-----------6----6------------|----------6--(6)-----------|
D|-------4-6-4----3-6--8-------|------4-6-4---3-----6------|
A|---4/6------------4--6-------|--4/6---------------6------|
E|-----------------------------|--------------------4------|

"While it's a hole in my heart..."

e|-----------------------------|---------------------------|
B|-----------------------------|---------------------------|
G|-----------6----6------------|----------6--(6)-----------|
D|-------4-6-4----3-6--8-------|------4-6-4---3-----6------|
A|---4/6------------4--6-------|--4/6---------------6------|
E|-----------------------------|--------------------4------|

e|-----------------------------|---------------------------|
B|-----------------------------|---------------------------|
G|-----------6----6------------|----------6--(6)----8------|
D|-------4-6-4----3-6--8-------|------4-6-4---3-----6------|
A|---4/6------------4--6-------|--4/6---------------6------|
E|-----------------------------|---------------------------|

*******
Finale:
*******
Now we have two guitar parts again, on alternate lines:



		"Allways a hole..."

e|------------------------------|------------------------------------|
B|------------------------------|------------------------------------|
G|-----------6----6-------------|----------6--(6)----8---------------|
D|-------4-6-4----3-----8-------|------4-6-4---3-----6---------------|
A|---4/6----------------6-------|--4/6---------------6---------------|
E|------------------------------|------------------------------------|

e|------------------------------|------------------------------------|
B|------------------------------|--------------------9---------------|
G|-----------11--10-----8-------|---------11--10--11-----11-10-8-----|
D|-------------------11---------|------------------------------------|
A|------------------------------|------------------------------------|
E|------------------------------|------------------------------------|

**



e|--------------------------------|---------------------------|
B|--------------------------------|---------------------------|
G|-----------6----6---------------|----------6--(6)----8------|
D|-------4-6-4----3-----8---------|------4-6-4---3-----6------|
A|---4/6----------------6---------|--4/6----------------------|
E|--------------------------------|---------------------------|

e|--------------------------------|--------------------------------------------------|
B|--------------------------------|------7-9-b11---7h9-9--7--------------------------|
G|-----------11--10~----8--8h11p8-|--6/8--------------------8h11p8--11p8-------------|
D|-------------------11-----------|--------------------------------------11----------|
A|--------------------------------|-----------------------------------------11--9-11-|
E|--------------------------------|--------------------------------------------------|

**

e|-------------------|
B|-------------------|
G|-------------------|
D|---6-----8~~\------|
A|---4-----6~~\------|
E|-------------------|


e|-------------------|
B|-------------------|
G|---6~~---8~~-------|
D|-------------------|
A|-------------------|
E|-------------------|



| /  slide up
| \  slide down
| h  hammer-on
| p  pull-off
| ~  vibrato
| +  harmonic
| x  Mute note
| b  Bend note
| r  Release bend
| pb Prebend note
| pm palm mute
===============================================================================
Добавлено: 20.07.2012
Вам также может быть интересно:
Другие материалы по этой песне:
  • Аккорды и текст

Страница создана 20.07.2012
http://primanota.ru/jaded-heart/hole-in-my-heart-chords.htm
Привет, Гость.
Предлагаем пройти революционный курс по гитаре.
Подарок от PrimaNota.Ru, забирай!