PrimaNota.ru - самый крупный в мире бесплатный архив песенных текстов, аккордов, табулатур и нот


Jacqueline Taieb - 7 Heures Du Matin - таба, видео

Регистрация Запомнить меня
Войти через:  Facebook Google Twitter Vk Yandex Mail.ru

Jacqueline Taieb - 7 Heures Du Matin - таба, видео

Печатать
Просмотров: 175
Авторы музыки: Jacqueline Taïeb
Авторы текста: Jacqueline Taïeb
Artist: Jacqueline Taieb    http://perso.orange.fr/taieb.jacqueline/taieb_old2/pages/page_1pag.html
Track: 7 Heures du Matin
Tabber: Woodshed



INTRO

D  F  G  F G F x2


Riff 1
e|-------------------------------------------------------------------------|
B|---------13--------------------------------------------------------------|
G|---12b14----12b14b12--10-------------------------------------------------|
D|-----------------------------12--10--12----------------------------------|
A|-------------------------------------------------------------------------|
E|-------------------------------------------------------------------------| 

Riff 1



D  F  G  F G F
Riff 1
Il est sept heure du matin, Faut s'réveiller

D  F  G  F G F
Riff 1
Ah, j'ai sommeil

D  F  G  F G F
Riff 1
Alors un peu d'musique pour se mettre en train, chais pas moi, Quelque chose comme

D
Talkin' 'bout my ch-ch-generation

D  F  G  F G F
Riff 1
Ouais c'est pas tout à fait ça

D  F  G  F G F
Riff 1
J'trouve plus ma brosse-à-dents

D  F  G  F G F
Riff 1
Où elle passée celle-là encore ?

D  F  G  F G F
Riff 1
Euh, la bleue est à mon père, La rouge est à ma mère La jaune est à mon frère

e|-------------------------------------------------------------------------|
B|-------------------------------------------------------------------------|
G|---------------------------------------------12b14~\---------------------|
D|-------------------------------------------------------------------------|
A|-------------------------------------------------------------------------|
E|-------------------------------------------------------------------------|
Z'avez pas vu ma brosse-à-dents ?
  


     D  F  G  F G F
e|-------------------------------12---------15-15b17-15-13--15-------------|
B|----------------------------12----13b15-----------------15---15----------|
G|--12b14-12--10b11----12b14-----------------------------------------------|
D|-------------------------------------------------------------------------|
A|-------------------------------------------------------------------------|
E|-------------------------------------------------------------------------|


D  F  G  F G F
Riff 1
Tiens on est lundi aujourd'hui

D  F  G  F G F
Riff 1
Ah, pour demain j'ai un d'voir d'anglais

D  F  G  F G F
Riff 1
Mm j'aimerais bien avoir Paul McCartney

e|-------------------------------------------------------------------------|
B|-------------------------------------------------------------------------|
G|---------------------------------------------12b14~\---------------------|
D|-------------------------------------------------------------------------|
A|-------------------------------------------------------------------------|
E|-------------------------------------------------------------------------|
Pour m'aider

D  F  G  F G F
e|-------------------------------------------------------------------------|
B|-----------------------------10------------------------------------------|
G|--------------------------------12p10------------------------------------|
D|-------------------------------------------------------------------------|
A|-------------------------------------------------------------------------|
E|-------------------------------------------------------------------------|

D  F  G  F G F
J'ai envie d'mettre un disque pour embêter les voisins qui roupillent toute la journée

D  F  G  F G F
Riff 1
Euh, quelque chose comme un bon Elvis Presley

D  F  G  F G F
Riff 1
Ah, mais c'est vrai celui-là il en est resté à

          F G        F D
Olobopalluba alopempom wa


D  F  G  F G F

e|---------------------15b17-15-13----13-15-15b17-15-13--------------------|
B|---------13-15-13----------------15--------------------------------------|
G|--12/14------------------------------------------------------------------|
D|-------------------------------------------------------------------------|
A|-------------------------------------------------------------------------|
E|-------------------------------------------------------------------------|

e|-----13-15-15b17-15-13-------13-15-15b17-15-13---------------------------|
B|--15-------------------15---------------------------15-------------------|
G|-------------------------------------------------------------------------|
D|-------------------------------------------------------------------------|
A|-------------------------------------------------------------------------|
E|-------------------------------------------------------------------------|

D  F  G  F G F
Un peu d'eau sur la figure pour me réveiller

D  F  G  F G F
Riff 1
Le dodo… c'est terminé

D  F  G  F G F
Riff 1
Je suis presque prête et ça va beaucoup mieux


Euh, je mets mon shetland rouge ou bien mon shetland bleu ?



e|--10--------------------------13-15--15b17-------------------------------|
B|--13b15~------------13/15------------------------------------------------|
G|-------------------------------------------------------------------------|
D|-------------------------------------------------------------------------|
A|-------------------------------------------------------------------------|
E|-------------------------------------------------------------------------|

e|--------13-15--15b17--15-13----13---------/10--13b15---------------------|
B|--13/15---------------------15----15-------------------------------------|
G|-------------------------------------------------------------------------|
D|-------------------------------------------------------------------------|
A|-------------------------------------------------------------------------|
E|-------------------------------------------------------------------------|
Mon shetland rouge ? Mon shetland bleu ?

e|---10-----10-------------------------------------------------------------|
B|-------13------13--10----------------------------------------------------|
G|----------------------------12-------------------------------------------|
D|-------------------------------------------------------------------------|
A|-------------------------------------------------------------------------|
E|-------------------------------------------------------------------------|


e|-------------------------------------------------------------------------|
B|-------------------------------------------------------------------------|
G|----7-7-7-7-7-7-7-7-7-7-7-7-7-7-7-7--------------------------------------|
D|-------------------------------------------------------------------------|
A|-------------------------------------------------------------------------|
E|-------------------------------------------------------------------------|
Mon shetland bleu !

e|-------------------------------------------------------------------------|
B|-------------------------------------------------------------------------|
G|-------------------------------------------------------------------------|
D|-------------------------------------------------------------------------|
A|---5-5-5-5-5-5-5-5-5-5-5-5-5-5-5-5-5-------------------------------------|
E|-------------------------------------------------------------------------|
Euh, mon shetland rouge

D  F  G  F G F
Oh mon shetland bleu

D  F  G  F G F
Mon shetland rouge

D  F  G  F G F
Le bleu? Le bleu? Le rouge?

D  F  G  F G F
Mon shetland rouge
Добавлено: 13.05.2012
Другие материалы по этой песне:
  • Аккорды и текст

Страница создана 13.05.2012
http://primanota.ru/jacqueline-taieb/7-heures-du-matin-chords.htm
Привет, Гость.
Предлагаем пройти революционный курс по гитаре.
Подарок от PrimaNota.Ru, забирай!