PrimaNota.ru - самый крупный в мире бесплатный архив песенных текстов, аккордов, табулатур и нот


Пасториус Жако - Havona,btab - таба, видео

Регистрация Запомнить меня
Войти через:  Facebook Google Twitter Vk Yandex Mail.ru

Пасториус Жако - Havona,btab - таба, видео

Печатать
Просмотров: 144



Date: Tue, 18 Jun 2002 13:40:05 +0300 (EEST)
From: =ISO-8859-1Qjan_bj=F6rklund= 
Subject: p/pastorius_jaco/havona,btab

jaco_pastorius-havona.btab

Basstab by Jan Bjorklund, Finland; 
jani_bjorklund@yahoo.se 
You are welcome to request for basstabs 
Bienvenidos a pedirme transcripciones para el bajo 
Fingering and positions as suggested by TablEdit. 

TablEdited by Jan Bjorklund
Tuning : E A D G 	Time Signature: 4/4

 |       |       |       |        |       |       |       |        
|------------------------4-------|----2-----------1---------------|
|------------2-------------------|------------------------4-------|
|5-------------------------------|--------------------------------|
|--------------------------------|--------------------------------|

 |       |       |       |        |       |       |       |        
|------------1-------------------|--------------------------------|
|2-------------------------------|--------------------------------|
|----------------------------4---|----------------2---------------|
|--------------------------------|--------------------------------|

 |       |       |        |       |       |       |        
|------------------------|--------------------------------|
|------------------------|--------------------------------|
|0-----------2-----------|--------------------------------|
|------------------------|2-------------------------------|

 |       |       |       |        |       |       |       |        
|--------------------------------|--------------------------------|
|--------------------------------|--------------------------------|
|--------------------------------|--------------------------------|
|--------------------------------|--------------------4-----------|

 |       |       |        |       |       |       |        
|------------------------|--------------------------------|
|------------------------|--------------------------------|
|------------2-----------|--------------------------------|
|------------------------|2-------------------------------|

 |       |       |       |        |       |       |       |        
|--------------------------------|--------------------------------|
|--------------------------------|--------------------------------|
|--------------------------------|--------------------------------|
|--------------------------------|--------------------4-----------|

 |       |       |        |       |       |       |        
|------------------------|--------------------------------|
|------------------------|--------------------------------|
|------------2-----------|--------------------------------|
|------------------------|2-------------------------------|

 |       |       |       |        |       |       |       |        
|--------------------------------|--------------------------------|
|--------------------------------|--------------------------------|
|--------------------------------|--------------------------------|
|--------------------------------|--------------------4-----------|

 |       |       |       |        |       |       |       |        
|--------------------------------|--------------------------------|
|------------------------2-------|----0---------------------------|
|0-----------2-------------------|----------------4---------------|
|--------------------------------|------------------------4-------|

 |       |       |        |       |       |       |        
|------------------------|--------------------------------|
|------------------------|0-------------------------------|
|0-----------2-----------|--------------------------------|
|------------------------|--------------------------------|

 |       |       |       |        |       |       |       |        
|--------------------------------|--------------------------------|
|--------------------------------|--------------------------------|
|--------------------------------|--------------------------------|
|--------------------------------|--------------------------------|

 |       |       |       |        |       |       |       |        
|--------------------------------|------4-------------------------|
|--------------------------------|2-----------2-------4---2-------|
|--------------------------------|--------------2---4---4---------|
|--------------------------------|--------------------------------|

 |       |       |       |        |       |       |       |        
|----8-7---6---------------------|----2-----------0-0-------------|
|--------------7-9-9-------------|0-------------------0-------0---|
|--------------------9-------7---|------3-------------------0---0-|
|----------------------7-9-9-----|----------------------3---------|

 |       |       |       |        |       |       |       |        
|--------4---4-2---2-------------|--------------------------------|
|----------------------------2---|--------4-4---------------------|
|3-------------------5-3---------|2-----------4-------------------|
|------------------------------5-|--------------2---------------2-|

 |       |       |       |        |       |       |       |        
|--------------------------------|--------------------------------|
|----------------4-4-------------|----0-0---------0-0-------------|
|----4---2-----------4-------4---|----------0-0-------------------|
|4-4---4---------------2---4---4-|3---------------------3---------|

 |       |       |       |        |       |       |       |        
|----------------0-0-------------|--------------------------------|
|------------------------------0-|------2-------2-------2-------2-|
|----------------------------0---|--------------------------------|
|----------------------3-3-------|0-------0-------0---------------|

 |       |       |       |        |       |       |       |        
|--------------------------------|------0-------------------------|
|------2-------------------------|--------------------0-----------|
|------------------------2-2-----|3-----------3-----0---0-3-------|
|0-------------0-------0---------|--------------3-----------------|

 |       |       |       |        |       |       |       |        
|----4-4---2---------------------|--------------------------------|
|--------------3-5-5-------------|--------4-4---------------------|
|--------------------5-------3---|2-----------4-------------------|
|----------------------3-5-5-----|--------------2---------------2-|

 |       |       |       |        |       |       |       |        
|--------------------------------|--------------------------------|
|----------------4-4-------------|--------------------------------|
|----4---2-----------4-------4---|----------------0-0-----0-2-----|
|4-4---4---------------2---4---4-|3-------------3-----------------|

 |       |       |       |        |       |       |       |        
|------------------3-0-----------|--------------------------------|
|----0-----------0/----2---------|--------------------------------|
|--2-----------2-----------2-----|0-----2-------2-------2-2-------|
|----------------------------4-1-|--------------------------------|

 |       |       |       |        |       |       |       |        
|--------------------------------|--------------------------------|
|--------------------------------|--------------9---------7/----9-|
|------2---------2---------------|0-------------------------------|
|--------------------------------|------7-------------------------|

 |       |       |       |        |       |       |       |        
|--------------------------------|--------------4-----------------|
|9-9-9-------9---7/----9---9-----|--------------------------------|
|--------------9-------------7-9-|------2-------------------------|
|------7-------------------------|5-------------------------------|

 |       |       |       |        |       |       |       |        
|----------------19--------------|------4-------------------------|
|--2-4-------1619--1916------4---|2-----------2-------4---2-------|
|2---------19----------19------2-|--------------2---4---4---------|
|------1920--------------2019----|--------------------------------|

 |       |       |       |        |       |       |       |        
|----8-7---6---------------------|----2-----------0-0-------------|
|--------------7-9-9-------------|0-------------------0-------0---|
|--------------------9-------7---|------3-------------------0---0-|
|----------------------7-9-9-----|----------------------3---------|

 |       |       |       |        |       |       |       |        
|--------4---4-2---2-------------|--------------------------------|
|----------------------------2---|--------4-4---------------------|
|3-------------------5-3---------|2-----------4-------------------|
|------------------------------5-|--------------2---------------2-|

 |       |       |       |        |       |       |       |        
|--------------------------------|--------------------------------|
|----------------4-4-------------|----0-0---------0-0-------------|
|----4---2-----------4-------4---|----------0-0-------------------|
|4-4---4---------------2---4---4-|3---------------------3---------|

 |       |       |       |        |       |       |       |        
|----------------0-0-------------|--------------------------------|
|------------------------------0-|------2-------2-------2-------2-|
|----------------------------0---|--------------------------------|
|----------------------3-3-------|0-------0-------0---------------|

 |       |       |       |        |       |       |       |        
|--------------------------------|------0-------------------------|
|------2-------------------------|--------------------0-----------|
|------------------------2-2-----|3-----------3-----0---0-3-------|
|0-------------0-------0---------|--------------3-----------------|

 |       |       |       |        |       |       |       |        
|----4-4---2---------------------|--------------------------------|
|--------------3-5-5-------------|--------4-4---------------------|
|--------------------5-------3---|2-----------4-------------------|
|----------------------3-5-5-----|--------------2---------------2-|

 |       |       |       |        |       |       |       |        
|--------------------------------|--------------------------------|
|----------------4-4-------------|--------------------------------|
|----4---2-----------4-------4---|----------------0-0-----0-2-----|
|4-4---4---------------2---4---4-|3-------------3-----------------|

 |       |       |       |        |       |       |       |        
|------------------3-0-----------|--------------------------------|
|----0-----------0/----2---------|--------------------------------|
|--2-----------2-----------2-----|0-----2-------2-------2-2-------|
|----------------------------4-1-|--------------------------------|

 |       |       |       |        |       |       |       |        
|--------------------------------|--------------------------------|
|--------------------------------|--------------9---------7/----9-|
|------2---------2---------------|0-------------------------------|
|--------------------------------|------7-------------------------|

 |       |       |       |        |       |       |       |        
|--------------------------------|--------------4-----------------|
|9-9-9-------9---7/----9---9-----|--------------------------------|
|--------------9-------------7-9-|------2-------------------------|
|------7-------------------------|5-------------------------------|

 |       |       |       |        |       |       |       |        
|----------------19--------------|------4-------------------------|
|--2-4-------1619--1916------4---|2-----------2-------4---2-------|
|2---------19----------19------2-|--------------2---4---4---------|
|------1920--------------2019----|--------------------------------|

 |       |       |       |        |       |       |       |        
|----8-7---6---------------------|----2-----------0-0-------------|
|--------------7-9-9-------------|0-------------------0-------0---|
|--------------------9-------7---|------3-------------------0---0-|
|----------------------7-9-9-----|----------------------3---------|

 |       |       |       |        |       |       |       |        
|--------4---4-2---2-------------|--------------------------------|
|----------------------------2---|--------4-4---------------------|
|3-------------------5-3---------|2-----------4-------------------|
|------------------------------5-|--------------2---------------2-|

 |       |       |       |        |       |       |       |        
|--------------------------------|--------------------------------|
|----------------4-4-------------|----0-0---------0-0-------------|
|----4---2-----------4-------4---|----------0-0-------------------|
|4-4---4---------------2---4---4-|3---------------------3---------|

 |       |       |       |        |       |       |       |        
|----------------0-0-------------|--------------------------------|
|------------------------------0-|------2-------2-------2-------2-|
|----------------------------0---|--------------------------------|
|----------------------3-3-------|0-------0-------0---------------|

 |       |       |       |        |       |       |       |        
|--------------------------------|------0-------------------------|
|------2-------------------------|--------------------0-----------|
|------------------------2-2-----|3-----------3-----0---0-3-------|
|0-------------0-------0---------|--------------3-----------------|

 |       |       |       |        |       |       |       |        
|----4-4---2---------------------|--------------------------------|
|--------------3-5-5-------------|--------4-4---------------------|
|--------------------5-------3---|2-----------4-------------------|
|----------------------3-5-5-----|--------------2---------------2-|

 |       |       |       |        |       |       |       |        
|--------------------------------|--------------------------------|
|----------------4-4-------------|--------------------------------|
|----4---2-----------4-------4---|----------------0-0-----0-2-----|
|4-4---4---------------2---4---4-|3-------------3-----------------|

 |       |       |       |        |       |       |       |        
|------------------3-0-----------|--------------------------------|
|----0-----------0/----2---------|--------------------------------|
|--2-----------2-----------2-----|0-----2-------2-------2-2-------|
|----------------------------4-1-|--------------------------------|

 |       |       |       |        |       |       |       |        
|--------------------------------|--------------------------------|
|--------------------------------|--------------9---------7/----9-|
|------2---------2---------------|0-------------------------------|
|--------------------------------|------7-------------------------|

 |       |       |       |        |       |       |       |        
|--------------------------------|--------------4-----------------|
|9-9-9-------9---7/----9---9-----|--------------------------------|
|--------------9-------------7-9-|------2-------------------------|
|------7-------------------------|5-------------------------------|

 |       |       |       |        |       |       |       |        
|----------------19--------------|------4-------------------------|
|--2-4-------1619--1916------4---|2-----------2-------4---2-------|
|2---------19----------19------2-|--------------2---4---4---------|
|------1920--------------2019----|--------------------------------|

 |       |       |       |        |       |       |       |        
|----8-7---6---------------------|----2-----------0-0-------------|
|--------------7-9-9-------------|0-------------------0-------0---|
|--------------------9-------7---|------3-------------------0---0-|
|----------------------7-9-9-----|----------------------3---------|

 |       |       |       |        |       |       |       |        
|--------4---4-2---2-------------|--------------------------------|
|----------------------------2---|--------4-4---------------------|
|3-------------------5-3---------|2-----------4-------------------|
|------------------------------5-|--------------2---------------2-|

 |       |       |       |        |       |       |       |        
|--------------------------------|--------------------------------|
|----------------4-4-------------|----0-0---------0-0-------------|
|----4---2-----------4-------4---|----------0-0-------------------|
|4-4---4---------------2---4---4-|3---------------------3---------|

 |       |       |       |        |       |       |       |        
|----------------0-0-------------|--------------------------------|
|------------------------------0-|------2-------2-------2-------2-|
|----------------------------0---|--------------------------------|
|----------------------3-3-------|0-------0-------0---------------|

 |       |       |       |        |       |       |       |        
|--------------------------------|------0-------------------------|
|------2-------------------------|--------------------0-----------|
|------------------------2-2-----|3-----------3-----0---0-3-------|
|0-------------0-------0---------|--------------3-----------------|

 |       |       |       |        |       |       |       |        
|----4-4---2---------------------|--------------------------------|
|--------------3-5-5-------------|--------4-4---------------------|
|--------------------5-------3---|2-----------4-------------------|
|----------------------3-5-5-----|--------------2---------------2-|

 |       |       |       |        |       |       |       |        
|--------------------------------|--------------------------------|
|----------------4-4-------------|--------------------------------|
|----4---2-----------4-------4---|----------------0-0-----0-2-----|
|4-4---4---------------2---4---4-|3-------------3-----------------|

 |       |       |       |        |       |       |       |        
|------------------3-0-----------|--------------------------------|
|----0-----------0/----2---------|--------------------------------|
|--2-----------2-----------2-----|0-----2-------2-------2-2-------|
|----------------------------4-1-|--------------------------------|

 |       |       |       |        |       |       |       |        
|--------------------------------|--------------------------------|
|--------------------------------|--------------9---------7/----9-|
|------2---------2---------------|0-------------------------------|
|--------------------------------|------7-------------------------|

 |       |       |       |        |       |       |       |        
|--------------------------------|--------------4-----------------|
|9-9-9-------9---7/----9---9-----|--------------------------------|
|--------------9-------------7-9-|------2-------------------------|
|------7-------------------------|5-------------------------------|

 |       |       |       |        |       |       |       |        
|----------------19--------------|----------------11--13----------|
|--2-4-------1619--1916------4---|--------------------------------|
|2---------19----------19------2-|------------14--------14--------|
|------1920--------------2019----|--------------------------------|

 |       |       |       |        |       |       |       |        
|--------------------------------|----------------11--1212--------|
|--------------------------------|------------10------------------|
|--------------------------------|--------------------------------|
|--------------------------------|--------------------------------|

 |       |       |       |        |       |       |       |        
|--------------------------------|------------------16----15------|
|--------------------------------|--------------------------1613--|
|--------------------------------|--------------------------------|
|--------------------------------|--------------------------------|

 |       |       |       |        |       |       |       |        
|1513------------------------13--|------19------------------------|
|--------------------------16----|19------------------------------|
|--------------------------------|------------19------------------|
|--------------------------------|--------------------------------|

 |       |       |       |        |       |       |       |        
|--------------------11--11--14--|11----------------1411----------|
|--------------------------------|----------------------12151114--|
|--------------------------------|------------------------------15|
|--------------------------------|----------------15--------------|

 |       |       |       |        |       |       |       |        
|8---------8-6-------------------|----------------9---9-12--------|
|--9-8---6-----------------------|----------9-1012--12----9-------|
|------9-------------------------|--------12------------------12--|
|--------------------------------|--------------------------------|

 |       |       |       |        |       |       |       |        
|--------------14--11----12------|1310----11----------------------|
|--------------------1412--1412--|----1311--1311----1311----------|
|------------------------------15|--------------1413----1311------|
|--------------------------------|--------------------------------|

 |       |       |       |        |       |       |       |        
|----------------------1310----10|--1614--------------------------|
|--------------------------1113--|16----1614--16----14------------|
|--------------------------------|--------------17----------------|
|--------------------------------|--------------------17----------|

 |       |       |       |        |       |       |       |        
|----------------9-11--9---------|------------4-----------2-4---2-|
|--------------------12--9-12--9-|----------------------------4---|
|----------------------------12--|------2-------------------------|
|--------------------------------|5-------------------------------|

 |       |       |       |        |       |       |       |        
|--------------------------------|--------------------------------|
|2-4-0---------------------------|--------------------------------|
|--------------------------------|--------------------------------|
|--------------------------------|--------------------------------|

 |       |       |       |        |       |       |       |        
|--11--9-------9-----------------|--------------------------------|
|----------129---129---129-------|0-2-4-0-------------------------|
|--------------------12----129---|--------2-2-0-------------------|
|------------------------------12|--------------------------------|

 |       |       |       |        |       |       |       |        
|--------------------------------|------------9---8---8-------6---|
|--------------------------------|------------------------9-------|
|--------------------------------|--------------------------------|
|--------------------------------|--------------------------------|

 |       |       |       |        |       |       |       |        
|--------------------118---------|------------7-4-5---4-----------|
|9-----------------------119-----|------7-4-5---------------------|
|--119-----------------------119-|------------------7-------------|
|--------------------------------|5-7-----------------------------|

 |       |       |       |        |       |       |       |        
|----------------------7-9-7-----|----13--------------------------|
|--------------9---10--------10--|13----1311--13----13------------|
|--------------------------------|--------------14----13--11------|
|--------------------------------|--------------------------------|

 |       |       |       |        |       |       |       |        
|----------10--1311----11--------|--9-----119---------------------|
|------------------11----13------|----129-----129---129-----------|
|--------------------14----141311|10--------------12--------------|
|--------------------------------|--------------------------------|

 |       |       |       |        |       |       |       |        
|--------------------------------|--------------------11131411----|
|--------------------------------|------0---------1114--------1412|
|--------------------------------|--0---------1214----------------|
|----------------------------0-0-|3-------1215--------------------|

 |       |       |       |        |       |       |       |        
|--8-118-----------------------8-|9-1112----129-----9-------------|
|11------119---118---------9-11--|------129-----109---129---------|
|------------11----9-----11------|------------------------12------|
|--------------------11----------|--------------------------------|

 |       |       |       |        |       |       |       |        
|--------------9-7---------------|----------6-4---3---------------|
|------------------9-7-----------|------6-4-----4---6-4-----3---3-|
|------------10--------10------0-|--6-4-----------------6-4---6---|
|------------------------108-7---|4-------------------------------|

 |       |       |       |        |       |       |       |        
|------6-------------------6-8---|----------------14------16------|
|--6-8-------6-5---6-8---8-------|14------16----------------14----|
|9---------8-----9---------------|----------14------17------------|
|--------9-----------------------|--1715------15------15------15--|

 |       |       |       |        |       |       |       |        
|19--0---16--0---18--0-------0---|2-----4-------------------------|
|--17--------------16----19------|--------------------------------|
|----------19--------------17----|--------------------------------|
|--------------------------------|--------------------------------|

 |       |       |       |        |       |       |       |        
|--------------------------------|7-----9-------------------------|
|--------------------------------|--------------------------------|
|--------------------------------|------7---------7---------------|
|--------------------------------|--------------------------------|

 |       |       |       |        |       |       |       |        
|--------------------------------|------------16------------------|
|--------------------------------|--------------------------------|
|--------------------------------|------14------------------------|
|--------------------------------|17------------------------------|

 |       |       |       |        |       |       |       |        
|4---------2123------2321------4-|--------------------------------|
|------2122------24------2221----|2-------------------------------|
|----21--------24--24--------21--|--------------------------------|
|--24----------------------------|--------------------------------|

 |       |       |       |        |       |       |       |        
|--------------------------------|------------------------------12|
|----------------0---------------|--------------------------------|
|--------------------------------|3-------------------------------|
|--------------------------------|--------------------------------|

 |       |       |       |        |       |       |       |        
|--------------------------------|--------------------------------|
|--------------------------------|--------------------------------|
|------------------------------3-|2-------------------------------|
|--------------------------------|--------------------------------|

 |       |       |       |        |       |       |       |        
|--------------------------------|----------23--------------------|
|--------------------------------|--------------------------------|
|--------------------------------|--------------------------------|
|----------------------------2---|3-------------------------------|

 |       |       |       |        |       |       |       |        
|--------------------------------|11--------------------------11--|
|--------------------------------|--------------------------12----|
|--------------------21----2124--|--------------------------------|
|----------------------22--------|------0-------------------------|

 |       |       |       |        |       |       |       |        
|8-------------------------------|5---------------------5---------|
|--------------------------------|--------------------------------|
|--------------------------------|--------------3-----------------|
|------0-------------------------|--------------------------------|

 |       |       |       |        |       |       |       |        
|0---------------0-----0-----0---|--------------------------------|
|--------------------------------|------4-------------------------|
|----3-------3-----------------3-|2-------2-----------------------|
|--------------------------------|--------------------------------|

 |       |       |       |        |       |       |       |        
|4-------------------------------|--------------0-----------------|
|----------------------4---------|--------------------------------|
|----------------2---------2-----|--------------------------------|
|------------------------------3-|--------------------------------|

 |       |       |       |        |       |       |       |        
|--------------------------------|--------------------------------|
|------------------------0-------|--------------------------------|
|------2---0---------------------|0-----2-------2---------2-------|
|----------------3---------------|--------------------------------|

 |       |       |       |        |       |       |       |        
|--------------------------------|--------------4---------2-----4-|
|--------------------------------|--------------------------------|
|------2---------2---------------|------2-------------------------|
|--------------------------------|5-------------------------------|

 |       |       |       |        |       |       |       |        
|--4-4-------4---2-----4---4-----|------------4-----4-4-4-4-4-4-4-|
|--------------4-------------2-4-|--------------------------------|
|------2-------------------------|------2-------------------------|
|--------------------------------|5-------------------------------|

 |       |       |       |        |       |       |       |        
|4-4-4-4-4-4-4-4-4-4-4-4-4-4-----|------------4-----4-4-4-4-4-4-4-|
|--------------------------------|--------------------------------|
|--------------------------------|------2-------------------------|
|--------------------------------|5-------------------------------|

 |       |       |       |        |       |       |       |        
|4-4-4-4-4-4-4-4-4-4-4-4-4-4-----|------------4-----4-4-4-4-4-4-4-|
|--------------------------------|--------------------------------|
|--------------------------------|------2-------------------------|
|--------------------------------|5-------------------------------|

 |       |       |       |        |       |       |       |        
|4-4-4-4-4-4-4-4-4-4-4-4-4-4-----|------------4-----4-4-4-4-4-4-4-|
|--------------------------------|--------------------------------|
|--------------------------------|------2-------------------------|
|--------------------------------|5-------------------------------|

 |       |       |       |        |       |       |       |        
|4-4-4-4-4-4-4-4-4-4-4-4-4-4-----|--------------------------------|
|--------------------------------|--------------------------------|
|--------------------------------|--------------------------------|
|--------------------------------|--------------------------------|

 |       |       |       |        |       |       |       |        
|7-----------9-------------------|----2-----------1---------------|
|------------------------9-------|------------------------4-------|
|--------------------------------|--------------------------------|
|--------------------------------|--------------------------------|

 |       |       |       |        |       |       |       |        
|----------------------------6---|----------------4---------------|
|------------6-------------------|--------------------------------|
|7-------------------------------|--------------------------------|
|--------------------------------|--------------------------------|

 |       |       |       |        |       |       |       |        
|2-----------4-------------------|--------------------------------|
|------------------------4-------|--------------------------------|
|--------------------------------|--------------------------------|
|--------------------------------|--------------------------------|




Created with TablEdit http://www.tabledit.com/


............................................................


Добавлено: 09.10.2013
Другие материалы по этой песне:
  • Аккорды и текст

Страница создана 09.10.2013
http://primanota.ru/jaco-pastorius/havona-btab-chords.htm
Привет, Гость.
Предлагаем пройти революционный курс по гитаре.
Подарок от PrimaNota.Ru, забирай!