PrimaNota.ru - самый крупный в мире бесплатный архив песенных текстов, аккордов, табулатур и нот


Пасториус Жако - Cutoff - бас-таба, видео

Регистрация Запомнить меня
Войти через:  Facebook Google Twitter Vk Yandex Mail.ru

Пасториус Жако - Cutoff - бас-таба, видео

Печатать
Просмотров: 150
Уроки эстрадного вокала в Санкт-Петербурге
jaco_pastorius-cutoff.btab

Basstab by Jan Bjorklund, Finland; 
jani_bjorklund@yahoo.se 
You are welcome to request for basstabs!
Bienvenidos a pedirme transcripciones para el bajo!
Fingering and positions as suggested by TablEdit. 

TablEdited by Jan Bjorklund
Tuning : E A D G 	Time Signature: 4/4

 |       |       |       |        |       |       |       |        
|------------------------2-------|------------------------2-------|
|--------------------------2-0---|--0-0-----0-----------0---2-0---|
|--------------------------------|--------------------------------|
|--------------------------------|--------------------------------|

 |       |       |       |        |       |       |       |        
|------------------------2-------|------------------------2-------|
|0---0-----0-----------0---2-0---|0---0---0-0-----------0---2-0---|
|--------------------------------|--------------------------------|
|--------------------------------|--------------------------------|

 |       |       |       |        |       |       |       |        
|------------------------2-------|------------------------2-------|
|--0-0-----2-----------0---2---0-|--0---0-0---0---------0---2-0---|
|--------------------------------|--------------------------------|
|--------------------------------|--------------------------------|

 |       |       |       |        |       |       |       |        
|------------------------2-------|------------------------2-0-----|
|0-----0---2-0---------0---2-0---|0---0---0-0-----------0---2-0---|
|--------------------------------|--------------------------------|
|--------------------------------|--------------------------------|

 |       |       |       |        |       |       |       |        
|------------------------2-------|------------------------2-0-----|
|0---0-----2-----------0---2---0-|--0---0---0-0---------0---2---0-|
|--------------------------------|--------------------------------|
|--------------------------------|--------------------------------|

 |       |       |       |        |       |       |       |        
|------------------------2-------|------------------------2-0-----|
|0---0-----2-----------0---2---0-|0---0-----0-----------0---2-0---|
|--------------------------------|--------------------------------|
|--------------------------------|--------------------------------|

 |       |       |       |        |       |       |       |        
|------------------------2-0-----|------------------------1-------|
|0---0---2---0---------0---2-----|------------------------4-1-----|
|----------3-----------------4---|4---4-----4-----------4-----4---|
|--------------------------------|--------------------------------|

 |       |       |       |        |       |       |       |        
|------------------------1-------|------------------------1-------|
|------------------------4-1-----|------------------------4-1-----|
|4-----4---1-----------4-----4---|4-----4---4-----------4-------4-|
|--------------------------------|--------------------------------|

 |       |       |       |        |       |       |       |        
|------------------------1-------|------------------------2-------|
|--------1---------------4-1---0-|--0---0---0-----------0---2-0---|
|4---4-----1---4-------4---------|--------------------------------|
|--------------------------------|--------------------------------|

 |       |       |       |        |       |       |       |        
|------------------------2-------|------------------------2-------|
|--0-0---2-0-----------0---2-0---|--0---0---0-0---------0---2---0-|
|--------------------------------|--------------------------------|
|--------------------------------|--------------------------------|

 |       |       |       |        |       |       |       |        
|------------------------2-0-----|------------------------2-0-----|
|0-----0---2-----------0---2---0-|--0---0---0-0---------0---2---0-|
|--------------------------------|--------------------------------|
|--------------------------------|--------------------------------|

 |       |       |       |        |       |       |       |        
|------------------------2-------|------------------------2-0-----|
|0---0-----2-----------0---2---0-|0---0-----0-----------0---2-0---|
|--------------------------------|--------------------------------|
|--------------------------------|--------------------------------|

 |       |       |       |        |       |       |       |        
|------------------------2-0-----|------------------------1-------|
|0---0---2---0---------0---2-----|------------------------4-1-----|
|----------3-----------------4---|4---4-----4-----------4-----4---|
|--------------------------------|--------------------------------|

 |       |       |       |        |       |       |       |        
|------------------------1-------|------------------------1-------|
|------------------------4-1-----|------------------------4-1-----|
|4-----4---1-----------4-----4---|4-----4---4-----------4-------4-|
|--------------------------------|--------------------------------|

 |       |       |       |        |       |       |       |        
|------------------------1-------|--------------------------------|
|--------1---------------4-1---0-|--------------------------------|
|4---4-----1---4-------4---------|1---------------3-------0-1-2---|
|--------------------------------|--------2-----------------------|

 |       |       |       |        |       |       |       |        
|--------------------------------|--------------------------------|
|--------------------------------|0---------------2---------0-1---|
|--------------------------------|--------1---------------4-------|
|--------------------------------|--------------------------------|

 |       |       |       |        |       |       |       |        
|--------------------------------|----------------3-------2-------|
|--------------------------------|4-------0-----------------------|
|--------------------------------|--------------------------------|
|--------------------------------|--------------------------------|

 |       |       |       |        |       |       |       |        
|0-------------------------------|--------------------------------|
|------0-------------------------|--------------------------------|
|--------------------------------|--------------------------------|
|------------3-------------------|--------------------------------|

 |       |       |       |        |       |       |       |        
|--------------------------------|------------9-------------------|
|--------------------------------|----------7---------------------|
|--------------------------------|--------------------0---0---7-0-|
|--------------------------------|10----1010----------------------|

 |       |       |       |        |       |       |       |        
|--------------9-----------------|--------------9-----------------|
|----------7---------------------|----------7---------------------|
|--------------------------------|--------------------0-0---7---0-|
|10--101010----------------------|10----1010----------------------|

 |       |       |       |        |       |       |       |        
|------------9-------------------|--------------5-----------------|
|--------7-----------------------|--------3-----------------------|
|--------------------------------|--------------------------3-----|
|10----1010----------------------|6-----6-6-----------1---1---1---|

 |       |       |       |        |       |       |       |        
|--------------5-----------------|------------5-------------------|
|--------3-----------------------|----------3---------------------|
|--------------------------------|----------------------------3---|
|6---6-6-----------------------1-|6-6---6-------------1---1---1---|

 |       |       |       |        |       |       |       |        
|--------------5-----------------|--------------1-----------------|
|----------3---------------------|--------------------------------|
|--------------------------------|----------4---------4---4-----4-|
|6-----6-6-----------------1-----|2-----2-------------------4-----|

 |       |       |       |        |       |       |       |        
|------------1-------------------|--------------1-----------------|
|--------------------------------|--------------------------------|
|----------4---------------------|----------4---------4---4-----4-|
|2---2-2-------------------------|2-2---2---------------------4---|

 |       |       |       |        |       |       |       |        
|--------------1-----------------|--------------9-----------------|
|--------------------------------|----------7---------------------|
|----------4-------------------4-|------------------0-------0-7-0-|
|2-----2-2-----------------------|10----1010----------------------|

 |       |       |       |        |       |       |       |        
|--------------9-----------------|--------------9-----------------|
|----------7---------------------|----------7---------------------|
|------------------0-------0-7-0-|------------------0---0---0-7-0-|
|10--101010----------------------|10----1010----------------------|

 |       |       |       |        |       |       |       |        
|--------------9-----------------|--------------5-----------------|
|----------7---------------------|----------3---------------------|
|--------------------0-----0-0-7-|----------------------------3---|
|10--101010----------------------|6-----6-6---------1-------1---1-|

 |       |       |       |        |       |       |       |        
|--------------5-----------------|--------------5-----------------|
|----------3---------------------|----------3---------------------|
|------------------------------3-|----------------------------3---|
|6---6-6-6-----------------1-1---|6-6---6-----------1-------1---1-|

 |       |       |       |        |       |       |       |        
|--------------5-----------------|--------------1-----------------|
|----------3---------------------|--------------------------------|
|--------------------------------|----------4---------4-----4---4-|
|6-----6-6-----------1-------1---|2-2---2---------------------4---|

 |       |       |       |        |       |       |       |        
|--------------1-----------------|--------------1-----------------|
|--------------------------------|--------------------------------|
|----------4-----------4---4---4-|----------4---------4-----4---4-|
|2---2-2---------------------4---|2-2---2---------------------4---|

 |       |       |       |        |       |       |       |        
|------------------6-5-3---------|--------------9-----------------|
|--------------6---------4-3-----|----------7---------------------|
|----------4-----------------4---|------------------0-------0-7-0-|
|2-----2-2---------------------4-|10----1010----------------------|

 |       |       |       |        |       |       |       |        
|--------------9-----------------|--------------9-----------------|
|----------7---------------------|----------7---------------------|
|------------------0-------0-7-0-|------------------0---0---0-7-0-|
|10--101010----------------------|10----1010----------------------|

 |       |       |       |        |       |       |       |        
|--------------9-----------------|--------------5-----------------|
|----------7---------------------|----------3---------------------|
|--------------------0-----0-0-7-|----------------------------3---|
|10--101010----------------------|6-----6-6---------1-------1---1-|

 |       |       |       |        |       |       |       |        
|--------------5-----------------|--------------5-----------------|
|----------3---------------------|----------3---------------------|
|------------------------------3-|----------------------------3---|
|6---6-6-6-----------------1-1---|6-6---6-----------1-------1---1-|

 |       |       |       |        |       |       |       |        
|--------------5-----------------|--------------1-----------------|
|----------3---------------------|--------------------------------|
|--------------------------------|----------4---------4-----4---4-|
|6-----6-6-----------1-------1---|2-2---2---------------------4---|

 |       |       |       |        |       |       |       |        
|--------------1-----------------|--------------1-----------------|
|--------------------------------|--------------------------------|
|----------4-----------4---4---4-|----------4---------4-----4---4-|
|2---2-2---------------------4---|2-2---2---------------------4---|

 |       |       |       |        |       |       |       |        
|------------------6-5-3---------|--------------9-----------------|
|--------------6---------4-3-----|----------7---------------------|
|----------4-----------------4---|------------------0-------0-7-0-|
|2-----2-2---------------------4-|10----1010----------------------|

 |       |       |       |        |       |       |       |        
|--------------9-----------------|--------------9-----------------|
|----------7---------------------|----------7---------------------|
|------------------0-----0---7-0-|------------------0-0-----0-7-0-|
|1010101010----------------------|10----1010----------------------|

 |       |       |       |        |       |       |       |        
|--------------9-----------------|--------------5-----------------|
|----------7---------------------|----------3---------------------|
|------------------0-------0-7-0-|----------------------------3---|
|10--101010----------------------|6-----6-----------1-------1---1-|

 |       |       |       |        |       |       |       |        
|--------------5-----------------|--------------5-----------------|
|----------3---------------------|----------3---------------------|
|------------------------------3-|----------------------------3---|
|6---6-6-6-----------------1-1---|6-6---6-----------1-------1---1-|

 |       |       |       |        |       |       |       |        
|--------------5-----------------|--------------1-----------------|
|----------3---------------------|--------------------------------|
|--------------------------------|----------4-------4-------4-----|
|6-6---6-6---------1---------1-1-|2-2---2---------------------4-2-|

 |       |       |       |        |       |       |       |        
|--------------1-----------------|--------------1-----------------|
|--------------------------------|--------------------------------|
|----------4---------4-----4---4-|----------4-------4-------4-----|
|----2-2---------------------4---|2-2---2---------------------4-2-|

 |       |       |       |        |       |       |       |        
|------------------6-5-3-5-------|--------------------------------|
|--------------6-----------6-3---|--------------------------------|
|----------4-------------------4-|1---------------3-------0-1-2---|
|------2-2-----------------------|--------2-----------------------|

 |       |       |       |        |       |       |       |        
|--------------------------------|--------------------------------|
|--------------------------------|0---------------2---------0-1---|
|--------------------------------|--------1---------------4-------|
|--------------------------------|--------------------------------|

 |       |       |       |        |       |       |       |        
|--------------------------------|----------------3-------2-------|
|--------------------------------|4-------0-----------------------|
|--------------------------------|--------------------------------|
|--------------------------------|--------------------------------|

 |       |       |       |        |       |       |       |        
|0-------------------------------|--------------------------------|
|------0-------------------------|--------------------------------|
|--------------------------------|--------------------------------|
|------------3-------------------|--------------------------------|

 |       |       |       |        |       |       |       |        
|--------------------------------|------------9-------------------|
|--------------------------------|----------7---------------------|
|--------------------------------|--------------------0---0---7-0-|
|--------------------------------|10----1010----------------------|

 |       |       |       |        |       |       |       |        
|--------------9-----------------|--------------9-----------------|
|----------7---------------------|----------7---------------------|
|--------------------------------|--------------------0-0---7---0-|
|10--101010----------------------|10----1010----------------------|

 |       |       |       |        |       |       |       |        
|------------9-------------------|--------------5-----------------|
|--------7-----------------------|--------3-----------------------|
|--------------------------------|--------------------------3-----|
|10----1010----------------------|6-----6-6-----------1---1---1---|

 |       |       |       |        |       |       |       |        
|--------------5-----------------|------------5-------------------|
|--------3-----------------------|----------3---------------------|
|--------------------------------|----------------------------3---|
|6---6-6-----------------------1-|6-6---6-------------1---1---1---|

 |       |       |       |        |       |       |       |        
|--------------5-----------------|--------------1-----------------|
|----------3---------------------|--------------------------------|
|--------------------------------|----------4---------4---4-----4-|
|6-----6-6-----------------1-----|2-----2-------------------4-----|

 |       |       |       |        |       |       |       |        
|------------1-------------------|--------------1-----------------|
|--------------------------------|--------------------------------|
|----------4---------------------|----------4---------4---4-----4-|
|2---2-2-------------------------|2-2---2---------------------4---|

 |       |       |       |        |       |       |       |        
|--------------1-----------------|--------------9-----------------|
|--------------------------------|----------7---------------------|
|----------4-------------------4-|------------------0-------0-7-0-|
|2-----2-2-----------------------|10----1010----------------------|

 |       |       |       |        |       |       |       |        
|--------------9-----------------|--------------9-----------------|
|----------7---------------------|----------7---------------------|
|------------------0-------0-7-0-|------------------0---0---0-7-0-|
|10--101010----------------------|10----1010----------------------|

 |       |       |       |        |       |       |       |        
|--------------9-----------------|--------------5-----------------|
|----------7---------------------|----------3---------------------|
|--------------------0-----0-0-7-|----------------------------3---|
|10--101010----------------------|6-----6-6---------1-------1---1-|

 |       |       |       |        |       |       |       |        
|--------------5-----------------|--------------5-----------------|
|----------3---------------------|----------3---------------------|
|------------------------------3-|----------------------------3---|
|6---6-6-6-----------------1-1---|6-6---6-----------1-------1---1-|

 |       |       |       |        |       |       |       |        
|--------------5-----------------|--------------1-----------------|
|----------3---------------------|--------------------------------|
|--------------------------------|----------4---------4-----4---4-|
|6-----6-6-----------1-------1---|2-2---2---------------------4---|

 |       |       |       |        |       |       |       |        
|--------------1-----------------|--------------1-----------------|
|--------------------------------|--------------------------------|
|----------4-----------4---4---4-|----------4---------4-----4---4-|
|2---2-2---------------------4---|2-2---2---------------------4---|

 |       |       |       |        |       |       |       |        
|------------------6-5-3---------|--------------9-----------------|
|--------------6---------4-3-----|----------7---------------------|
|----------4-----------------4---|------------------0-------0-7-0-|
|2-----2-2---------------------4-|10----1010----------------------|

 |       |       |       |        |       |       |       |        
|--------------9-----------------|--------------9-----------------|
|----------7---------------------|----------7---------------------|
|------------------0-------0-7-0-|------------------0---0---0-7-0-|
|10--101010----------------------|10----1010----------------------|

 |       |       |       |        |       |       |       |        
|--------------9-----------------|--------------5-----------------|
|----------7---------------------|----------3---------------------|
|--------------------0-----0-0-7-|----------------------------3---|
|10--101010----------------------|6-----6-6---------1-------1---1-|

 |       |       |       |        |       |       |       |        
|--------------5-----------------|--------------5-----------------|
|----------3---------------------|----------3---------------------|
|------------------------------3-|----------------------------3---|
|6---6-6-6-----------------1-1---|6-6---6-----------1-------1---1-|

 |       |       |       |        |       |       |       |        
|--------------5-----------------|--------------1-----------------|
|----------3---------------------|--------------------------------|
|--------------------------------|----------4---------4-----4---4-|
|6-----6-6-----------1-------1---|2-2---2---------------------4---|

 |       |       |       |        |       |       |       |        
|--------------1-----------------|--------------1-----------------|
|--------------------------------|--------------------------------|
|----------4-----------4---4---4-|----------4---------4-----4---4-|
|2---2-2---------------------4---|2-2---2---------------------4---|

 |       |       |       |        |       |       |       |        
|------------------6-5-3---------|--------------9-----------------|
|--------------6---------4-3-----|----------7---------------------|
|----------4-----------------4---|------------------0-------0-7-0-|
|2-----2-2---------------------4-|10----1010----------------------|

 |       |       |       |        |       |       |       |        
|--------------9-----------------|--------------9-----------------|
|----------7---------------------|----------7---------------------|
|------------------0-----0---7-0-|------------------0-0-----0-7-0-|
|1010101010----------------------|10----1010----------------------|

 |       |       |       |        |       |       |       |        
|--------------9-----------------|--------------5-----------------|
|----------7---------------------|----------3---------------------|
|------------------0-------0-7-0-|----------------------------3---|
|10--101010----------------------|6-----6-----------1-------1---1-|

 |       |       |       |        |       |       |       |        
|--------------5-----------------|--------------5-----------------|
|----------3---------------------|----------3---------------------|
|------------------------------3-|----------------------------3---|
|6---6-6-6-----------------1-1---|6-6---6-----------1-------1---1-|

 |       |       |       |        |       |       |       |        
|--------------5-----------------|--------------1-----------------|
|----------3---------------------|--------------------------------|
|--------------------------------|----------4-------4-------4-----|
|6-6---6-6---------1---------1-1-|2-2---2---------------------4-2-|

 |       |       |       |        |       |       |       |        
|--------------1-----------------|--------------1-----------------|
|--------------------------------|--------------------------------|
|----------4---------4-----4---4-|----------4-------4-------4-----|
|----2-2---------------------4---|2-2---2---------------------4-2-|

 |       |       |       |        |       |       |       |        
|------------------6-5-3-5-------|--------------------------------|
|--------------6-----------6-3---|--------------------------------|
|----------4-------------------4-|1---------------3-------0-1-2---|
|------2-2-----------------------|--------2-----------------------|

 |       |       |       |        |       |       |       |        
|--------------------------------|--------------------------------|
|--------------------------------|0---------------2---------0-1---|
|--------------------------------|--------1---------------4-------|
|--------------------------------|--------------------------------|

 |       |       |       |        |       |       |       |        
|--------------------------------|----------------3-------2-------|
|--------------------------------|4-------0-----------------------|
|--------------------------------|--------------------------------|
|--------------------------------|--------------------------------|

 |       |       |       |        |       |       |       |        
|0-------------------------------|--------------------------------|
|------0-------------------------|--------------------------------|
|--------------------------------|--------------------------------|
|------------3-------------------|--------------------------------|

 |       |       |       |        |       |       |       |        
|--------------------------------|------------------------2-------|
|------------------------------0-|--0---0---0-0---------0---2-0---|
|--------------------------------|--------------------------------|
|--------------------------------|--------------------------------|

 |       |       |       |        |       |       |       |        
|------------------------2-------|------------------------2-------|
|--0-0-----0-----------0---2-0---|--0-0-----0-----------0---2---0-|
|--------------------------------|--------------------------------|
|--------------------------------|--------------------------------|

 |       |       |       |        |       |       |       |        
|------------------------2-0-----|------------------------2-------|
|0---0-----2-----------0---2-0---|0---0-----0-----------0---2-0---|
|--------------------------------|--------------------------------|
|--------------------------------|--------------------------------|

 |       |       |       |        |       |       |       |        
|------------------------2-------|------------------------2-------|
|0---0---0---0---------0---2---0-|0-----0---0-----------0---2---0-|
|--------------------------------|--------------------------------|
|--------------------------------|--------------------------------|

 |       |       |       |        |       |       |       |        
|------------------------2-------|------------------------2-------|
|0---0-----0-0---------0---2-0---|0---0-----0-----------0---2-0---|
|--------------------------------|--------------------------------|
|--------------------------------|--------------------------------|

 |       |       |       |        |       |       |       |        
|------------------------2-------|------------------------2-------|
|0---0-----2-----------0---2-0---|--0-0-----0-----------0---2-0---|
|--------------------------------|--------------------------------|
|--------------------------------|--------------------------------|

 |       |       |       |        |       |       |       |        
|------------------------2-------|------------------------1-------|
|0---0---2-0-----------0---2-----|--------------------------4-----|
|----------3-------------------4-|--4---4---4-----------4-------4-|
|--------------------------------|--------------------------------|

 |       |       |       |        |       |       |       |        
|------------------------1-------|------------------------1-------|
|------------------------4-1-----|--------------------------4-----|
|--4---4---1-----------4-------4-|4---4-----4-----------4-----4---|
|--------------------------------|--------------------------------|

 |       |       |       |        |       |       |       |        
|------------------------1-------|--------------------------------|
|------1-----------------4-1-----|0-------------------------------|
|4---4-----1-4-4-------4-------4-|--------------------------------|
|--------------------------------|--------------------------------|




Created with TablEdit http://www.tabledit.com/


............................................................
     
Добавлено: 28.11.2013
Другие материалы по этой песне:
  • Аккорды и текст

Страница создана 28.11.2013
http://primanota.ru/jaco-pastorius/cutoff-chords.htm
Привет, Гость.
Предлагаем пройти революционный курс по гитаре.
Подарок от PrimaNota.Ru, забирай!