PrimaNota.ru - самый крупный в мире бесплатный архив песенных текстов, аккордов, табулатур и нот


Jackyl - When Will It Rain - текст песни, таба, видео

Регистрация Запомнить меня
Войти через:  Facebook Google Twitter Vk Yandex Mail.ru

Jackyl - When Will It Rain - текст песни, таба, видео

Печатать
Просмотров: 174
Tabbed by: dr.icee21


Tuning:Standard or half step down either one works.


Intro/verse

e|---------------------------------------------------------------------------|
B|---------------------------------------------------------------------------|
G|----7-----7---------7-----7---------7-----7---------7-----7---------7------|
D|----7-----7---------7-----7---------7-----7---------7-----7---------7------|
A|----5-5-5-5-5-5-5-5-5-5-5-5-5-5-5-5-5-5-5-5-5-5-5-5-5-5-5-5-5-5-5-5-5------|
E|---------------------------------------------------------------------------|
pm      . .   . . . .   . .   . . . .   . .   . . . .   . .    . . . .
e|--------------------------------------------------------------------------|
B|--------------------------------------------------------------------------|
G|--7-----7---------7---------7h9p7h9p7h9-10------7---------7---------------|
D|--7-----7---------7-----------------------------7---------7---------------|
A|--5-5-5-5-5-5-5-5-5-5-5-------------------------5-5-5-5-5-5-5-5-----------|
E|--------------------------------------------------------------------------|
pm    . .   . . . .   . .                           . . . .   . .     x4

Chorus
e|--------------------------------------------------------------------------|
B|--------------------------------------------------------------------------|
G|--7-7-5--------------7---5-5--7-7-9-5-5-5-7-7-7--7------------------------|
D|--7-7-5--------------x---x-x--x-x-x-x-x-x-x-x-x--7------------------------|
A|--5-5-3--------------5---3-3--5-5-7-3-3-3-5-5-5--5------------------------|
E|--------------------------------------------------------------------------|

verse
Chorus
then solo
chorus
verse
end
anyway please rate and comment. i dont care if you deside to use this as part of your 
version of this song this is just a rough idea of what it sounds like so any one with anny 
other parts of the song please emial me.
************************************

| /   slide up
| \   slide down
| h   hammer-on
| p   pull-off
| ~   vibrato
| +   harmonic
| x   Mute note
| b   Bend
| pb  Pre-bend
| br  Bend release
| pbr Pre-bend release
| brb Bend release bend

************************************
Добавлено: 25.04.2012
Другие материалы по этой песне:
  • Аккорды и текст

Страница создана 06.03.2012
http://primanota.ru/jackyl/when-will-it-rain-chords.htm
Привет, Гость.
Предлагаем пройти революционный курс по гитаре.
Подарок от PrimaNota.Ru, забирай!