PrimaNota.ru - самый крупный в мире бесплатный архив песенных текстов, аккордов, табулатур и нот


Jackson Browne - World In Motion - текст песни, таба, видео

Регистрация Запомнить меня
Войти через:  Facebook Google Twitter Vk Yandex Mail.ru

Jackson Browne - World In Motion - текст песни, таба, видео

Печатать
Просмотров: 37
Авторы: Craig Doerge, Jackson Browne

Jackson Browne - World in Motion

Tabbed by E.W. Hans

Tuning: DADF#AD (open D)

D |---------0-----------------0----------|------3-----0-----------0----------|
A |---------------0-----3~----------0----|------------------3-----------0----|
F#|--------------------------------------|-----------------------------------| (*)
D |---------0--------0-----0-----------0-|------0--------0-----0-----------0-|  &
A |--------------------------------------|-----------------------------------| (**)
D |(5/3p)0-----0--------0--------0-------|---0-----0--------0--------0-------|

D |---5-----5-----5-----5-----5-----5----|-5/3--3-----3-----3-----3-----3----|
A |---5-----5-----5-----5-----5-----5----|-5/3--3-----3-----3-----3-----3----|
F#|--------------------------------------|-----------------------------------| (%)
D |------5-----------5-----5-----------5-|----3----------3-----3-----------3-|
A |--------------------------------------|-----------------------------------|
D |---5--------5--------5--------5-------|-5/3-----3--------3--------3-------|

D: 000000       F: 333333
G: 555555       A: 777777 (^: play the G-note on the 5th fret on the low D string)
#: 000333 (play bass note, strike down-down, up-down-up-down-up, D)

INTRO: play (* & **)

(D) Sun going down in the USA (*)
(D) Down on Main there's a family sleeping in a (%) doorway
(D) Around the corner you can hear the sound (*)
(A) People dancing. ^Around the golden calf. 
    ^Those who have not. ^Those who have (* & **)

(D) On the billboards and the TV screens (*)
(D) They got food and cars and toys and (%) trucks and jeans
(D) Like a homeless child's fitfull dreams (*)
(A) Smiling faces. ^Free from wanting. ^Life's abundances. ^Beyond counting

(G) World in motion.      (D) Speed your changes
(G) Close your distances. (D) Find your angels
(G) Lose your fears and (G) meet your dangers
(A) World in motion  (* & **)

(D) Once we were (G) running through smoke and (D) fire
(G) Running into the (D) sun
(G) In the rush of youth, (G) for love and truth
Our (D) deeds were done
Now (G) we awake with a (G) world at stake
And a (F) race we run... We (* & **) run....

(D) Sun going down on the USA (*)
(D) Sun coming up a hundred years (%) away
(D) On another world and another time (*)
(A) Things like hunger, ^greed and hatred. 
    ^One way or another, ^gonna be eradicated (#)

(G) World in motion.      (D) Speed your changes
(G) Close your distances. (D) Find your angels
(G) Lose your fears and (G) meet your dangers
(A) World in motion  (* & **)
        
'Till the (F)world (A)I (G)look out at this (G)world (A)and (G)see
Is the (G-A-G) world I know this (G)world (A)can (G)be... (A)"WHOOO"
You have a volun(G)teer (A)in (G)me... Now come (* & **) on...
Добавлено: 07.06.2016
Другие материалы по этой песне:
  • Аккорды и текст

Страница создана 08.06.2012
http://primanota.ru/jackson-browne/world-in-motion-chords.htm
Привет, Гость.
Предлагаем пройти революционный курс по гитаре.
Подарок от PrimaNota.Ru, забирай!