PrimaNota.ru - самый крупный в мире бесплатный архив песенных текстов, аккордов, табулатур и нот


Jackson 5 - Destiny - текст песни, таба, видео

Регистрация Запомнить меня
Войти через:  Facebook Google Twitter Vk Yandex Mail.ru

Jackson 5 - Destiny - текст песни, таба, видео

Печатать
Просмотров: 123
The Jackson 5 - Destiny

Tuning - EADGBe

Tabbed the intro out for some students that I teach and thought I'd upload it. Please feel free to add
any comments or corrections. :)

Intro

E|---------------------------------|
B|---------1-------------3---------|
G|-----0-----0---0---------------0-|
D|---2---2-----2-------2-------2---|
A|-3-----------------2-----0h2-----|
E|-----------------0---------------|

E|-------------------------------|
B|-------3-----------------------|
G|-----3---3---------2-0---0h2-0-|
D|---3-------3-----3-----3-------| x2
A|-1-------------3---------------|
E|-------------1-----------------|

E|---------------|
B|---------------|
G|-----0---------|
D|---2---0---0h2-|
A|-3-------3-----|
E|---------------|

Chords

C, Em, Bb, F, Bb, F, C

Verse 1 (Lyrics)

In this world there's so much confusion...
Добавлено: 14.02.2016
Вам также может быть интересно:
Другие материалы по этой песне:
  • Аккорды и текст

Страница создана 13.02.2014
http://primanota.ru/jackson-5/destiny-chords.htm
Привет, Гость.
Предлагаем пройти революционный курс по гитаре.
Подарок от PrimaNota.Ru, забирай!