PrimaNota.ru - самый крупный в мире бесплатный архив песенных текстов, аккордов, табулатур и нот


Jackopierce - My Time - аккорды и текст, таба, видео

Регистрация Запомнить меня
Войти через:  Facebook Google Twitter Vk Yandex Mail.ru

Jackopierce - My Time - аккорды и текст, таба, видео

Печатать
Просмотров: 196
My Time
Jackopierce



Subject: j/jackopierce/my_time.crd
Date: Mon, 1 Apr 2002 08:37:30 -0600

My TimeJACKOPIERCEFrom the album JackopierceTabbed by:  Arabella =
Clauson  and Ryan Julian keenan6t9@hotmail.com

 Chords:
   E   Asus2 or   C#m   F#m
---0--- ---0--- ---0--- ---0--- ---0---
---0--- ---0--- ---0--- ---0--- ---0---
---1--- ---2--- ---6--- ---6--- ---2---
---2--- ---2--- ---7--- ---6--- ---4---
---2--- ---0--- ---7--- ---4--- ---4---
---0--- ---0--- ---5--- ---x--- ---x---


Fill: Usually played at the beginning or end of the verses, appropriate =
whenever though.
E|-------------------------------------|
B|-7h9-p7-7---7-p5-5--4h5-4--4h5-5-----|
G|-------------------------------------|




Intro:
E  F#m (2x)
E  Asus2  C#m  Asus2  E


Verse:
E  Asus2  C#m  Asus2  F#m


Chorus:
F#m  Asus2  C#m  Asus2


Verse:
E                      Asus2
Quick step to texas in the dr...
       C#m        Asus2
and it seems the man in ...
E         Asus2 C#m
As he left the Kansas ....
Asus2
All in a dream


V. 2

 Chorus:
F#m   Asus2
I ... I'm biding my time
C#m       Asus2
I'll hitch my w...
I'm taking my ...
Who knows where ....


v3, 4, 5

Chorus


Добавлено: 13.01.2014
Другие материалы по этой песне:
  • Аккорды и текст

Страница создана 16.05.2012
http://primanota.ru/jackopierce/my-time-chords.htm
Привет, Гость.
Предлагаем пройти революционный курс по гитаре.
Подарок от PrimaNota.Ru, забирай!