PrimaNota.ru - самый крупный в мире бесплатный архив песенных текстов, аккордов, табулатур и нот


Jacknife - Deception - таба, видео

Регистрация Запомнить меня
Войти через:  Facebook Google Twitter Vk Yandex Mail.ru

Jacknife - Deception - таба, видео

Печатать
Просмотров: 176
----------------------------------------------------------------------------
                             deception - jacknife
----------------------------------------------------------------------------
Tabbed by: sean crow
Email: die_for_nothing_323@hotmail.com    band  - jacnife
                                          album - moment of reckoning
                                          label - zero sum
                                          site  - www.jacknife.net

                        ------------------------------------------ 
Tuning:  DADGBe         ---------PLEASE RATE AND! COMMENT---------
                        ------------------------------------------
 (REAL SONG CGCFAd)   
                        Right this band is not huge but they are amazin
                          so i recommend buyin their album if u havent done
                            so already 'cos they f**kin rock!!
 
e|------------------------------------------------------------| 
B|------------------------------------------------------------|
G|------------------------------------------------------------|
D|---------------------------------------------------000-000--|  X6
A|-----8---7h8---10---8---7h8p7------------8---7h8---000-000--|
D|-0-0---0-----0----0---0-------0-10*--0-0---0-----0-000-000--|
   . .   .     .    .   .       .      . .   .     . ... ...
e|-----|---------|-------|-----|---------|
B|-(x2)|---(x3)--|-------|-(x8)|---(x8)--|
G|-----|---------|-------|-----|---------|
D|-000-|-000-0-0-|-00000-|-000-|-000-0-0-|
A|-000-|-000-0-0-|-00000-|-000-|-000-0-0-|
D|-000-|-000-0-0-|-00000-|-000-|-000-0-0-|
   ...   ... . .   .....   ...   ... . .
e|------------------|----------------|------------------|
B|-------------(x6)-|-----------(x2)-|-------------(x2)-|
G|------------------|----------------|------------------|
D|-2---2---2--------|-3---3---3------|-2---2---2--------|
A|-2---2---2--------|----------------|-2---2---2--------|
D|---0---0---0(x10)-|---0---0---0(x10|---0---0---0(x10)-|
     .   .   .          .   .   .        .   .   .

e|-----------------------------------------------------|       E|-------|
B|-----------------------------------------------------|       B|-------|
G|-----------------------------------------------------|       G|-------|
D|-00000000--0000-----------00000000000000------32-----|  X8   D|--0----|
A|-00000000--0000-5320-5320-00000000000000-5320----32--|       A|--0(x8)|
D|-00000000--0000-----------00000000000000-------------|       D|--0----|
   ........  ....           ..............
Добавлено: 09.07.2012
Другие материалы по этой песне:

Страница создана 26.03.2012
http://primanota.ru/jacknife/deception-chords.htm
Привет, Гость.
Предлагаем пройти революционный курс по гитаре.
Подарок от PrimaNota.Ru, забирай!