PrimaNota.ru - самый крупный в мире бесплатный архив песенных текстов, аккордов, табулатур и нот


Jack Parnell - The Muppet Show Bass - бас-таба, видео

Регистрация Запомнить меня
Войти через:  Facebook Google Twitter Vk Yandex Mail.ru

Jack Parnell - The Muppet Show Bass - бас-таба, видео

Печатать
Просмотров: 57
-------------------------------------------------------------------------------
                             Muppet Show Theme - Jack Parnell
-------------------------------------------------------------------------------
Tabbed by: Matthew Sommerfeldt (MGS22)
E-mail: sommer77@hotmail.com 

Tuning: Standard

G|-------------------------2--2-2--------------------------------------------|
D|-------------4--4-4---4----------4-0-2----------------7--7-7---7-----------|
A|-4--4-4---4---------4---------------------7--7-7---7---------7-------------|
E|--------5----------------------------------------8-------------------------|

G|---------------------------------------------------------------------------|
D|-5-5--5-7-8-9----------1-----5--5-5-----1-----5--5-5-----------------------|
A|---------------10---3-----5----------3-----5-------------------------------|
E|---------------------------------------------------------------------------|

G|-5-5-2-4-3-4-0--5-5-2-4-2-0------0--------5--7-9--9-9-10-12----------------|
D|-----------------------------2-2----3-2-3----------------------------------|
A|---------------------------------------------------------------------------|
E|--------------------------------------------------------------3-3-5-7------|

G|-5-5-2-4-3-4-0--5-5-2-4-2-0------0-------5---------------------------------|
D|-----------------------------2-2---3-2-3-----------------------------------|
A|-------------------------------------------3-5-7--7-5--5-3-----------------|
E|---------------------------------------------------------------------------|

G|-5-7-5-4-7-5----5-7-5-4-7-5--5-7-5-4-5-9----------4-5-7--------------------|
D|-------------5---------------------------5--5-7-7--------------------------|
A|---------------------------------------------------------------------------|
E|---------------------------------------------------------------------------|

  (use noise hits to simulate the drum fill)
G|-x-x--x--x---x-x-x-x--x-x--------------------------------------------------|
D|-x-x--x--x---x-x-x-x--x-x--------------------------------------------------|
A|-x-x--x--x---x-x-x-x--x-x--------------------------------------------------|
E|-x-x--x--x---x-x-x-x--x-x--------------------------------------------------|

G|-5-5-2-4-3-4-0--5--5---4-4-2-0---------0---------5------0---------5--------|
D|---------------------7------------2-2------3-2-3----2-2-----3-2-3----------|
A|---------------------------------------------------------------------------|
E|---------------------------------------------------------------------------|

G|-9-9-12-10-9-10-17-------------------------------------------9--9-9----9---|
D|---------------------------------7--7-7---7--10--10-10-7-10---------10-----|
A|---------------------7--7-7---7---------7----------------------------------|
E|----------------------------8----------------------------------------------|

G|--------7--9--9--9--9------------17----------------------------------------|
D|-7-9-10---------------10---------------------------------------------------|
A|---------------------------------------------------------------------------|
E|---------------------------------------------------------------------------|
Добавлено: 30.05.2016
Другие материалы по этой песне:
  • Аккорды и текст

Страница создана 30.05.2016
http://primanota.ru/jack-parnell/muppet-show-bass-chords.htm
Привет, Гость.
Предлагаем пройти революционный курс по гитаре.
Подарок от PrimaNota.Ru, забирай!