PrimaNota.ru - самый крупный в мире бесплатный архив песенных текстов, аккордов, табулатур и нот


Jack Off Jill - Rabiteen - текст песни, таба, видео

Регистрация Запомнить меня
Войти через:  Facebook Google Twitter Vk Yandex Mail.ru

Jack Off Jill - Rabiteen - текст песни, таба, видео

Печатать
Просмотров: 105
-------------------------------------------------------------------------------
                             RABITEEN - Jack Off Jill
-------------------------------------------------------------------------------
Tabbed by: magickmidget
Email: magickmidget@hotmail.com

Tuning:  DROP D!
Bass intro.

Verse
e|--------------------------------------------------|
B|--------------------------------------------------|
G|--------------------------------------------------|
D|-0------------------------------------------------|
A|-0-------------------2~-----3~-----5~-------------|
D|-0------------------------------------------------|
He said that he would, stay forever
Forever wasn't,        very long
He said that he would, take the high road
He thought that I was, always wrong
 
Chorus
e|------------------------------------------------------------|
B|------------------------------------------------------------|
G|-----------------------------------------------------5-/-7--|
D|-00--------------------6-4-6---------------4-0-4---0-5-/-7--|
A|-00--------------------6-4-6---------------4-0-4---0-3-/-5--|
D|-00--------------------6-4-6---------------4-0-4---0--------|
     'Cause when he lied it meant he loved me

e|------------------------------------------------------|
B|------------------------------------------------------|
G|-----------------------------------------------5-/-7--|
D|-00--------------------6-4-0---------------4-0-5-/-7--|
A|-00--------------------6-4-0---------------4-0-3-/-5--|
D|-00--------------------6-4-0---------------4-0--------|
     And when he lied it meant he cared

e|------------------------------------------------------------|
B|------------------------------------------------------------|
G|-----------------------------------------------------5-/-7--|
D|-00--------------------6-4-6---------------4-0-4---0-5-/-7--|
A|-00--------------------6-4-6---------------4-0-4---0-3-/-5--|
D|-00--------------------6-4-6---------------4-0-4---0--------|
     And when he lied it meant he loved me

e|---------------------------------------|
B|---------------------------------------|
G|---------------------------------------|
D|-00--------------------6-4----------0--|
A|-00--------------------6-4----------0--|
D|-00--------------------6-4- --------0--|
     'Cause when he lied it meant that-     he was there


Intro (with effects)
e|------------------------------------------|
B|------------------------------------------|
G|------------------------------------------|
D|------------------------------------------|
A|-----5-00-3-00-5-5-3--0-0-3-00-2-00-5-5-3-|
D|-0-0--------------------------------------|

Verse
e|--------------------------------------------------|
B|--------------------------------------------------|
G|--------------------------------------------------|
D|-0------------------------------------------------|
A|-0-------------------2~-----3~-----5~-------------|
D|-0------------------------------------------------|
He said that he would, go his own way
Wrapped up my leg and, down my spine
He said that he would, be the fairest
Drenched in blood and, turpentine
 
Chorus
e|------------------------------------------------------------|
B|------------------------------------------------------------|
G|-----------------------------------------------------5-/-7--|
D|-00--------------------6-4-6---------------4-0-4---0-5-/-7--|
A|-00--------------------6-4-6---------------4-0-4---0-3-/-5--|
D|-00--------------------6-4-6---------------4-0-4---0--------|
     'Cause when he lied it meant he loved me

e|------------------------------------------------------|
B|------------------------------------------------------|
G|-----------------------------------------------5-/-7--|
D|-00--------------------6-4-0---------------4-0-5-/-7--|
A|-00--------------------6-4-0---------------4-0-3-/-5--|
D|-00--------------------6-4-0---------------4-0--------|
     And when he lied it meant he cared

e|------------------------------------------------------------|
B|------------------------------------------------------------|
G|-----------------------------------------------------5-/-7--|
D|-00--------------------6-4-6---------------4-0-4---0-5-/-7--|
A|-00--------------------6-4-6---------------4-0-4---0-3-/-5--|
D|-00--------------------6-4-6---------------4-0-4---0--------|
     And when he lied it meant he loved me

e|---------------------------------------|
B|---------------------------------------|
G|---------------------------------------|
D|-00--------------------6-4----------0--|
A|-00--------------------6-4----------0--|
D|-00--------------------6-4----------0--|
     'Cause when he lied it meant that    he was there


Bridge
e|------------------------------------------|
B|------------------------------------------|
G|------------------------------------------|
D|------------------------------------------|
A|-----5-00-3-00-5-5-3--0-0-3-00-2-00-5-5-3-|
D|-0-0--------------------------------------|
I'm never going back I don't care what he said
I wish he could see the hate in my mind
I wish he could see the hate.. ah..


Verse (no guitar for two measures)
He said that he would, tell me secrets
He said that he would, never lie
e|--------------------------------------------------|
B|--------------------------------------------------|
G|--------------------------------------------------|
D|-0------------------------------------------------|
A|-0-------------------2~-----3~-----5~-------------|
D|-0------------------------------------------------|
He said that he would, spring eternal
He thought that we would, never die
 
Chorus
e|------------------------------------------------------------|
B|------------------------------------------------------------|
G|-----------------------------------------------------5-/-7--|
D|-00--------------------6-4-6---------------4-0-4---0-5-/-7--|
A|-00--------------------6-4-6---------------4-0-4---0-3-/-5--|
D|-00--------------------6-4-6---------------4-0-4---0--------|
     'Cause when he lied it meant he loved me

e|------------------------------------------------------|
B|------------------------------------------------------|
G|-----------------------------------------------5-/-7--|
D|-00--------------------6-4-0---------------4-0-5-/-7--|
A|-00--------------------6-4-0---------------4-0-3-/-5--|
D|-00--------------------6-4-0---------------4-0--------|
     And when he lied it meant he cared

e|------------------------------------------------------------|
B|------------------------------------------------------------|
G|-----------------------------------------------------5-/-7--|
D|-00--------------------6-4-6---------------4-0-4---0-5-/-7--|
A|-00--------------------6-4-6---------------4-0-4---0-3-/-5--|
D|-00--------------------6-4-6---------------4-0-4---0--------|
     And when he lied it meant he loved me

e|---------------------------------------|
B|---------------------------------------|
G|---------------------------------------|
D|-00--------------------6-4-2--------0--|
A|-00--------------------6-4-2--------0--|
D|-00--------------------6-4-2--------0--|
     'Cause when he cried it meant he cared (rah!)

e|------------------------------------------------------------|
B|------------------------------------------------------------|
G|-----------------------------------------------------5-/-7--|
D|-00--------------------6-4-6---------------4-0-4---0-5-/-7--|
A|-00--------------------6-4-6---------------4-0-4---0-3-/-5--|
D|-00--------------------6-4-6---------------4-0-4---0--------|
     'Cause when he lied it meant he loved me

e|------------------------------------------------------|
B|------------------------------------------------------|
G|-----------------------------------------------5-/-7--|
D|-00--------------------6-4-0---------------4-0-5-/-7--|
A|-00--------------------6-4-0---------------4-0-3-/-5--|
D|-00--------------------6-4-0---------------4-0--------|
     And when he lied it meant he cared

e|------------------------------------------------------------|
B|------------------------------------------------------------|
G|-----------------------------------------------------5-/-7--|
D|-00--------------------6-4-6---------------4-0-4---0-5-/-7--|
A|-00--------------------6-4-6---------------4-0-4---0-3-/-5--|
D|-00--------------------6-4-6---------------4-0-4---0--------|
     And when he lied it meant he loved me

e|---------------------------------------|
B|---------------------------------------|
G|---------------------------------------|
D|-00--------------------6-4-2--------0--|
A|-00--------------------6-4-2--------0--|
D|-00--------------------6-4-2--------0--|
     'Cause when he lied it meant that    

  He was
  He was
  He was
  He was there

Outro
e|----|
B|----|
G|----|
D|-00-|
A|-00-|
D|-00-|

===============================================================================
Добавлено: 04.04.2012
Другие материалы по этой песне:
  • Аккорды и текст

Страница создана 04.04.2012
http://primanota.ru/jack-off-jill/rabiteen-chords.htm
Привет, Гость.
Предлагаем пройти революционный курс по гитаре.
Подарок от PrimaNota.Ru, забирай!