PrimaNota.ru - самый крупный в мире бесплатный архив песенных текстов, аккордов, табулатур и нот


Jack Nitzsche - The Last Race - таба, видео

Регистрация Запомнить меня
Войти через:  Facebook Google Twitter Vk Yandex Mail.ru

Jack Nitzsche - The Last Race - таба, видео

Печатать
Просмотров: 84
Tuning (almost like a 7string):

Something special, but I think the record i listened to was a bit to slow/fast.
With the Youtube vids of the song actually this tuning will work: (whith fine adjustment)

e -> exactly between a and b
B -> a bit higher then F#
G -> exactly between C# and D
D -> exactly between G# and A
A -> exactly between D# and E
E -> B

Main Riff:

---------------------------------------------------|
---------------------------------------------------|
---------------------------------------------------|
---------------------------------------------------|
---------------------------------------------------|
--1-2-3-1-2-3-1-2-3-1-2-3-1-2-3-1-2-3-1-2-3-1-2-3--|

Or:

---------------------------------------------------|
---------------------------------------------------|
---------------------------------------------------|
--4-5-6-4-5-6-4-5-6-4-5-6-4-5-6-4-5-6-4-5-6-4-5-6--|
---------------------------------------------------|
---------------------------------------------------|


Intro: (vibrato/tremolo)

--4~--2~--4~----4~--2~--4~-------------------------|
--5~--3~--5~----5~--3~--5~-------------------------|
--6~--4~--6~----6~--4~--6~-------------------------|
--6~--4~--6~----6~--4~--6~-------------------------|
---------------------------------------------------|
---------------------------------------------------|


Verse:

---------------------------2r----2r----------------|
-------------------------4-----1----4-1---1--------|
---------------------1-4----------------4---2-1----|
---4r--2----------4r----------------------------4--|
--4-----4-2-4r---4---------------------------------|
---------------------------------------------------|

----------------------------------------------------|
----------------------------------------------------|
--------------------2-4r---4r-2---------------------|
-4-----------------2-----4-----4-2-4r-----4r-2r-----|
--2------------2r-4-----------------------------4r--|
----4-1-0-1r--1-------------------------------------|
Добавлено: 05.06.2016
Другие материалы по этой песне:
  • Аккорды и текст

Страница создана 05.06.2016
http://primanota.ru/jack-nitzsche/last-race-chords.htm
Привет, Гость.
Предлагаем пройти революционный курс по гитаре.
Подарок от PrimaNota.Ru, забирай!