PrimaNota.ru - самый крупный в мире бесплатный архив песенных текстов, аккордов, табулатур и нот


Jack Johnson - If I Could - текст песни, таба, видео

Регистрация Запомнить меня
Войти через:  Facebook Google Twitter Vk Yandex Mail.ru

Jack Johnson - If I Could - текст песни, таба, видео

Печатать
Просмотров: 213
Авторы музыки: Jack Johnson
Авторы текста: Jack Johnson
these are the main riffs that go on throughout the song

e---------------------------------|
B---------------------------------|
G---------------------------------|
D---------------------------7-----|
A-0-0-0-4/7-7-7-7-------4/9---9---|
E-----------------2-2-2---------7-|

e--------------------------------------|
B--------------------------------------|
G--------------------------------------|
D--------------------------------------|
A-0-0-0-4/7-7-7-7-------4/9-9----------|
E-----------------2-2-2-------7/5------|
Добавлено: 28.05.2012
Другие материалы по этой песне:

Страница создана 27.02.2012
http://primanota.ru/jack-johnson/if-i-could-chords.htm
Привет, Гость.
Предлагаем пройти революционный курс по гитаре.
Подарок от PrimaNota.Ru, забирай!