PrimaNota.ru - самый крупный в мире бесплатный архив песенных текстов, аккордов, табулатур и нот


Jack Johnson - Girl I Wanna Lay You Down - аккорды и текст, таба, видео

Регистрация Запомнить меня
Войти через:  Facebook Google Twitter Vk Yandex Mail.ru

Jack Johnson - Girl I Wanna Lay You Down - аккорды и текст, таба, видео

Печатать
Просмотров: 248
Girl I Wanna Lay You Down
Jack Johnson
Tabbed by: Keith Barger
Email:kbarger8912aol.com

  My first time doing this, so sorry for any mess-ups. This song is very simple. It
sounds better if you use a palm mute between sturms. You may want to listen to the
song for a better chance at picking up the sturm pattern.

Tuning: Standard

    Intro
     F           C            G             C
                          (bar chord)
e|---1-----------0------------3-------------0-------------------------------
B|---1-----------1------------3-------------1-------------------------------
G|---2-----------0------------4-------------0-------------------------------
D|---3-----------2------------5-------------2-------------------------------
A|---3-----------3------------5-------------3-------------------------------
E|---1-----------0------------3-------------0-------------------------------

  Verse 
     C                                 F

e|---0---------------------------------1-----------------------------------
B|---1---------------------------------1------------------------------------
G|---0---------------------------------2------------------------------------
D|---2---------------------------------3------------------------------------
A|---3---------------------------------3------------------------------------
E|---0---------------------------------1------------------------------------

Verse 1
   C                       F
I come over early in the morning
            C                   F
I'm like a heat wave, without warning
              C                           F
And when I touch you my heart begins to flutter
                        C                  F     G(Bar chord)
Cos you're smooth and creamy like peanut butter

Chorus
 C                   F
Girl I wanna lay you down
         C                    F
(I said) girl I wanna lay you down

Verse 2
          C                       F
I'm gonna flood you, like a love river
             C                      F
Awe baby the post man, is about to deliver
                  C                F
Cook you up some dinner, a little pasta
                 C             F
Listen to some music, a little rasta

(chorus)

Verse 3
              C                   F
Turn off the lights, bring in the candles
             C                 F
wrap your arms around my love handles...
               C               F
They say that passion may not endure
           C                             F   
But this feeling that I have for you is burning up my world


(this is the same as the chorus)

Aweee, I said girl I wanna lay you down
(I said) girl I wanna lay you down
Girl I wanna lay you down
Girl I wanna lay you down
Girl I wanna lay you down
Girl I wanna lay you down
Girl I wanna lay you down

----------------------------------------------

This is an easy song to play. Enjoy!



| /  slide up
| \  slide down
| B  hammer-on
| p  pull-off
| ~  vibrato
| +  harmonic
| x  Mute note
===============================================================================
Добавлено: 26.06.2012
Другие материалы по этой песне:
  • Аккорды и текст

Страница создана 03.03.2012
http://primanota.ru/jack-johnson/girl-i-wanna-lay-you-down-chords.htm
Привет, Гость.
Предлагаем пройти революционный курс по гитаре.
Подарок от PrimaNota.Ru, забирай!