PrimaNota.ru - самый крупный в мире бесплатный архив песенных текстов, аккордов, табулатур и нот


Jack Johnson - Fortunate Fools - таба, видео

Регистрация Запомнить меня
Войти через:  Facebook Google Twitter Vk Yandex Mail.ru

Jack Johnson - Fortunate Fools - таба, видео

Печатать
Просмотров: 123
  Artist: Jack Johnson
  Song:   Fortunate Fools
  Album:  brushfirefairytales (2001)

Tab was originally created by Stephen Callender (kiddeut@hotmail.com)
Check out Jack's website (www.jackjohnsonmusic.com) for full lyrics.


INTRO
E--7/9\7--4/7\4--3/5\3--2/4\2--|----------------|
B--7/9\7--4/7\4--3/5\3--2/4\2--|------9---------|
G------------------------------|--(2)/9\--------|
D------------------------------|----------------|

There are some little guitar fills here and there,
but they are too varied and random to tab out.


VERSE
E--7--4--7--4--||   ||--3--2--3----||
B--7--4--7--4--||   ||--3--2--3----||
G--------------||   ||-------------||
She's got it all....anybody doubts her...


E--7--4--7--4--||   ||--3--2--3----||
B--7--4--7--4--||   ||--3--2--3----||
G--------------||   ||-------------||
...just so mmm....what they gave her...

E-----------|-7--4--7--4--||
B-----------|-7--4--7--4--||
G-----------|-------------||
D-----------|-------------||
A-4/6-4-6-4-|-------------||
  Into  a    mmm...


E                   F#
She's the one...
       B         G#   F#   E (3x)
Such a fortunate fool...=20
       B      Bb  B=20
She's just so mmm=20


E--7--4--7--4--||   ||--3--2--3----||
B--7--4--7--4--||   ||--3--2--3----||
G--------------||   ||-------------||
She's got it all....anybody doubts her...=20
=20

E                   F#
She's the one...
       B         G#   F#   E =20
Such a fortunate fool...=20
       B      G#  F#=20
She's just so mmm


     
Добавлено: 31.07.2013
Другие материалы по этой песне:
  • Аккорды и текст

Страница создана 31.07.2013
http://primanota.ru/jack-johnson/fortunate-fools-chords.htm
Привет, Гость.
Предлагаем пройти революционный курс по гитаре.
Подарок от PrimaNota.Ru, забирай!