PrimaNota.ru - самый крупный в мире бесплатный архив песенных текстов, аккордов, табулатур и нот


Jack Johnson - Bob Marley Sublime Melody - таба, видео

Регистрация Запомнить меня
Войти через:  Facebook Google Twitter Vk Yandex Mail.ru

Jack Johnson - Bob Marley Sublime Melody - таба, видео

Печатать
Просмотров: 123
Jack Johnson
Bob Marley, Sublime Medley (live)
Tabbed by: Jeremy Fazely

If you haven't heard this song you're missing out, it's a fun little jam.

Intro and 1st Verse (if you want to call it that). Just listen for rhythm.

     G       B       F       C

e ---3-------1-------1-------3------|
B ---3-------3-------1-------5------|
G ---4-------3-------2-------5------|
D ---5-------3-------3-------5------|
A ---5-------1-------3-------3------|
E ---3-------x-------1-------x------|


Lyrics

One good thing about music
is when it hits, you feel no pain
One good thing about music
is when it hits, you feel no pain
so hit me with music
woah hit me with music now
hit me with music
brutalize me with mu---oooooh


*Play the rest of the song with just the G and F chords.


we took this trip to garden grove
it smelled like lou-dog inside the van
this ain't no funky reggae party
5 dollars at the door
it gets to real sometimes
who wrote my rhymes

got my microwave
i got my VCR
I've got the deuce deuce in the trunk of my car


Fill

e ---1/3/1/3---------------------------------------3---3-----3/6-|
B ---1/3/1/3-------------------------------------3---3---3---3/6-|
G ---------------------------------------------------------------|
D ---------------------------------------------------------------|
A ---------------------------------------------------------------|
E ---------------------------------------------------------------|


Ring the Alarm cause now the sound is dying
woooah-oooaahhhh
ring the alarm, and now the sound is suffering
ring the alarm cause now the sound is dying
ring the alarm, and now the sound is..
and now the sound is
and now the sound is...


what did you what did you what did you what did you say
what did you what did you what did you what did you say
what did you what did you what did you what did you say
what did you what did you what did you what did you say
Добавлено: 06.11.2013
Другие материалы по этой песне:
  • Аккорды и текст

Страница создана 06.11.2013
http://primanota.ru/jack-johnson/bob-marley-sublime-melody-chords.htm
Привет, Гость.
Предлагаем пройти революционный курс по гитаре.
Подарок от PrimaNota.Ru, забирай!