PrimaNota.ru - самый крупный в мире бесплатный архив песенных текстов, аккордов, табулатур и нот


Jack Douglass - Ygs Theme - таба, видео

Регистрация Запомнить меня
Войти через:  Facebook Google Twitter Vk Yandex Mail.ru

Jack Douglass - Ygs Theme - таба, видео

Печатать
Просмотров: 61
YGS Theme
By Jank Doogles


This is my first real tab, it sounds right but I don't know exactly how to do 
this. Refer to his videos for the rhythm.



Capo on 4th

E|---0--2--4---|2--4--5--4--2-|--------------|--------------|
B|-------------|--------------|-5--4--5--2---|--5-4-0-2-----|
G|-------------|--------------|--------------|--------------|
D|-------------|--------------|--------------|--------------|
A|-------------|--------------|--------------|--------------|
E|-------------|--------------|--------------|--------------|


E|-------------|--------------|--------------|--------------|
B|-------------|-----2--0--2--|--4--2--4--5--|-2--4--5--4--5|
G|--1--3--4--3-|--4-----------|--------------|--------------|
D|-------------|--------------|--------------|--------------|
A|-------------|--------------|--------------|--------------|
E|-------------|--------------|--------------|--------------|


E|--2--0--2----|--4-4--2------|
B|-------------|--------------|
G|-------------|--------------| Repeat once
D|-------------|--------------|
A|-------------|--------------|
E|-------------|--------------|

At the end, either muffle the strings and strum 4x fast or play open E 4x fast.



Thanks for playing, I was tire of waiting for the tabs to be released on day and 
decided to just figure it out. Enjoy!
Добавлено: 10.06.2013
Вам также может быть интересно:
Другие материалы по этой песне:
  • Аккорды и текст

Страница создана 10.06.2013
http://primanota.ru/jack-douglass/ygs-theme-chords.htm
Привет, Гость.
Предлагаем пройти революционный курс по гитаре.
Подарок от PrimaNota.Ru, забирай!