PrimaNota.ru - самый крупный в мире бесплатный архив песенных текстов, аккордов, табулатур и нот


jack and eliza - Quarter Past The Hour - таба, видео

Регистрация Запомнить меня
Войти через:  Facebook Google Twitter Vk Yandex Mail.ru

jack and eliza - Quarter Past The Hour - таба, видео

Печатать
Просмотров: 83
Chords:

 E     C#m     F#     G#     B     DMaj7   G     Em     Bm      E*     A

E-x-   E-x-   E-x-   E-x-   E-x-   E-5-   E-x-   E-0-   E-2-   E-0-   E-0-
B-9-   B-5-   B-x-   B-x-   B-4-   B-7-   B-x-   B-0-   B-3-   B-0-   B-2-
G-9-   G-6-   G-x-   G-x-   G-4-   G-6-   G-x-   G-0-   G-4-   G-1-   G-2-
D-9-   D-6-   D-4-   D-6-   D-4-   D-7-   D-5-   D-2-   D-4-   D-2-   D-2-
A-7-   A-4-   A-4-   A-6-   A-2-   A-5-   A-5-   A-2-   A-2-   A-2-   A-0-
E-x-   E-x-   E-2-   E-4-   E-x-   E-x-   E-3-   E-0-   E-x-   E-0-   E-x-

Listen for timing and strum pattern. G# and B are played for a shorter amount of time than the other chords.

Strum pattern usually involves hitting the bass note first and then hitting the other strings, left handed
muting is thrown in sometimes. All down strokes, just have to feel the strumming pattern.

There's two guitars being played, I tabbed out the lead guitar (Eliza).

G# and B are played for a shorter amount of time than the other chords


Intro: E C#m F# G# F# B

  E         C#m              F#
Calling you out to take it on,

 G#      F#   B
I don't mind

  E        C#m       F#
Ruling it out, do what you want,

 G#    F#m   
I don't mind


Chorus:

    F#m        B     E*
I guess I don't have time

     A       F#m
Hold me baby up

         B          E*
A quarter past the hour

  A           F#m   B
and my body's cold

Verse:

   E       C#m            F#m
Only a doubt, do what you want,

 G#     F#m   B
I don't mind

   E     C#m                F#m
Calling you out for who you are

G#        F#m
One more time

Chorus:

   F#m      B          E*
I guess I don't have time

        A      F#m
Hold me baby up

          B         E*
A quarter past the hour

   A       F#m     B
and my body's cold


Bridge:

  DMaj7    G
Thought I could hold you

 Em         Bm
So sweet, so sweet

  G        DMaj7
Thought I did it to you

  Em       Bm
So sweet, so sweet


Solo: (Listen for timing, it's so important. I broke it up into little sections)

E--12--12-14-14^(15)----|-----12--------------|---------------------------------------------|---------------
B--------------------14-|12-14---14-12--------|-(bend up, pluck thrice,then bend back down)-|-------12------
G-----------------------|-------------13-11---|------13^(14)(14)(14)(14)--11----------------|--11-13--13----
D-----------------------|---------------------|---------------------------------------------|---------------
A-----------------------|---------------------|---------------------------------------------|---------------
E-----------------------|---------------------|---------------------------------------------|---------------

E--12--12-14-14^(15)----|------12-------------|-----------------------------|-------------------------------
B--------------------14-|12-14---14-12--------|------(same thing again)-----|-------------------------------
G-----------------------|-------------13-11---|------13^(14)(14)(14)(14)----|-9-----------------------------
D-----------------------|---------------------|-----------------------------|-------------------------------
A-----------------------|---------------------|-----------------------------|-------------------------------
E-----------------------|---------------------|-----------------------------|-------------------------------


                     E
I guess I don't have time

         A    F#m
Hold me baby up

    F#m    B        E
A quarter past the hour
       
        A      F#m
and my body's cold


I'm pretty sure this is accurate. I hope you enjoy playing this lovely song!
Добавлено: 15.06.2016
Другие материалы по этой песне:
  • Аккорды и текст

Страница создана 15.06.2016
http://primanota.ru/jack-and-eliza/quarter-past-hour-chords.htm
Привет, Гость.
Предлагаем пройти революционный курс по гитаре.
Подарок от PrimaNota.Ru, забирай!