PrimaNota.ru - самый крупный в мире бесплатный архив песенных текстов, аккордов, табулатур и нот


Jacco Gardner - Face To Face - таба, видео

Регистрация Запомнить меня
Войти через:  Facebook Google Twitter Vk Yandex Mail.ru

Jacco Gardner - Face To Face - таба, видео

Печатать
Просмотров: 103
Jacco Gardner - Face To Face

INTRO (also the way the verses are played)
   Dadd6/A         Cmaj7           G       B       E                C#m     F#      C#m
e|-2------------2-------3--3-------3-----------2---0--------0------------4--2---------------|
B|------0--0-------5------------5-------0--4-------------0-------0--5------------2--5----5--|
G|----2-------2-------4-------4-------0---------------1h2------1-------6-------3-------6----|
D|---0---0---0---0---5---5---5---5---0---0---4---4---2----2---2---2---6---6---4---4---6---6-|
A|-0---0---0---0---3---3---3---3-----------2---2--------------------4---4-----------4---4---|
E|---------------------------------3---3-----------0----0---0---0-----------2---2-----------|

VERSE 1
Dadd6/A   Cmaj7       G  B        E
I want to have myself    split in two
C#m    F#     C#m  Dadd6/A
Please tell me how to?

Dadd6/A   Cmaj7
G     B   E
C#m   F#  C#m

VERSE 2
Dadd6/A   Cmaj7         G  B        E
I want to see that side    face to face
C#m F#    C#m Dadd6/A
And try to  erase

INTERLUDE (2x)
   Dadd6/A         Bb/D            A               F#
e|-2------------2--1----1--01---1-----------------------0--2----0--|
B|------0--0----------3-------3----2----2--02---2--2---------------|
G|----2-------2------3---3---3---3----2-------2-------3-------3----|
D|---0---0---0---0-0---0---0---0-----2---2---2---2---4---4---4---4-|
A|-0---0---0---0-------------------0---0---2---2-------------------|
E|-------------------------------------------------2---2---2---2---|

RE-INTRO
   Dadd6/A         Cmaj7           G       B       E                C#m     F#      C#m
e|-2------------2-------3--3-------3-----------2---0--------0------------4--2---------------|
B|------0--0-------5------------5-------0--4-------------0-------0--5------------2--5----5--|
G|----2-------2-------4-------4-------0---------------1h2------1-------6-------3-------6----|
D|---0---0---0---0---5---5---5---5---0---0---4---4---2----2---2---2---6---6---4---4---6---6-|
A|-0---0---0---0---3---3---3---3-----------2---2--------------------4---4-----------4---4---|
E|---------------------------------3---3-----------0----0---0---0-----------2---2-----------|

VERSE 3
Dadd6/A   Cmaj7          G  B           E
I want to see their world   through his eye
C#m F#  C#m Dadd6/A
And then  decide

Dadd6/A   Cmaj7
G     B   E
C#m   F#  C#m

VERSE 4
Dadd6/A     Cmaj7        G  B     E
Show me his weakness now,   and begin
C#m F#      C#m Dadd6/A
To  help me to  win

INTERLUDE (5x)
   Dadd6/A         Bb/D            A               F#
e|-2------------2--1----1--01---1-----------------------0--2----0--|
B|------0--0----------3-------3----2----2--02---2--2---------------|
G|----2-------2------3---3---3---3----2-------2-------3-------3----|
D|---0---0---0---0-0---0---0---0-----2---2---2---2---4---4---4---4-|
A|-0---0---0---0-------------------0---0---2---2-------------------|
E|-------------------------------------------------2---2---2---2---|

End on Dadd6
Добавлено: 23.08.2015
Вам также может быть интересно:
Другие материалы по этой песне:
  • Аккорды и текст

Страница создана 23.08.2015
http://primanota.ru/jacco-gardner/face-to-face-chords.htm
Привет, Гость.
Предлагаем пройти революционный курс по гитаре.
Подарок от PrimaNota.Ru, забирай!