PrimaNota.ru - самый крупный в мире бесплатный архив песенных текстов, аккордов, табулатур и нот


Jacco Gardner - Before The Dawn - таба, видео

Регистрация Запомнить меня
Войти через:  Facebook Google Twitter Vk Yandex Mail.ru

Jacco Gardner - Before The Dawn - таба, видео

Печатать
Просмотров: 161
Уроки эстрадного вокала в Санкт-Петербурге
Jacco Gardner - Before The Dawn


INTRO

  ====================x2====================   ====================x2================== 
   

e|-11----------11----8---9----------9----8---||-9----------9----7---9---------9----7---|
B|----11----11----11---9---11----11---11---9-||---10----10---10---9---10---10---10---9-|
G|-------11-------------------11-------------||------11------------------9-------------|
D|-------------------------------------------||----------------------------------------|
A|-------------------------------------------||----------------------------------------|
E|-------------------------------------------||----------------------------------------|


  =======================x2=======================   ================x2===============

e|-12----------12----10----12----------12----10----||-8-------8---5---6-------6---5---|
B|----13----13----13----12----13----13----13----12-||---8---8---8---6---8---8---8---6-|
G|-------14----------------------12----------------||-----8---------------8-----------|
D|-------------------------------------------------||---------------------------------|
A|-------------------------------------------------||---------------------------------|
E|-------------------------------------------------||---------------------------------|


VERSE 1 [0:55]

Ebm Fm  Gb     Fm  Ebm
Let the nights whisper
Fm Gb
Se-crets

Gbm   Abm A     Abm Gbm
'Till the light in  me
Abm A
Is  gone

Am Bm  C    Bm Am
E- v'rytime a  search 
Bm   C
Will come

Cm   Dm   Eb Dm Cm
They will go be-fore
Dm  Eb 
The dawn


- REPEAT INTRO [1:50]


VERSE 2 [2:43]
Ebm  Fm Gb   Fm
Tell me more
Ebm  Fm  Gb
When you stand

Gbm Abm A    Abm
At  the door
Gbm Abm A
Of  my  mind

Am Bm C
It be-gins
Bm  Am Bm C
And I  a- wake

Cm   Dm  Eb    Dm
Then you leave
Cm Dm Eb
Me be-hind


OUTRO [3:38]

from this point on, it's a build-up to the end over the same chords as above,
with various synth sounds

at some point the intro riff is introduced again, listen to the song for the right moment


OUTRO VERSE [7:10] (as verse 1)

Ebm Fm  Gb     Fm  Ebm
Let the nights whisper
Fm Gb
Se-crets

Gbm   Abm A     Abm Gbm
'Till the light in  me
Abm A
Is  gone

Am Bm  C    Bm Am
E- v'rytime a  search 
Bm   C
Will come

Cm   Dm   Eb Dm Cm
They will go be-fore
Dm  Eb 
The dawn
Добавлено: 23.08.2015
Другие материалы по этой песне:
  • Аккорды и текст

Страница создана 23.08.2015
http://primanota.ru/jacco-gardner/before-dawn-chords.htm
Привет, Гость.
Предлагаем пройти революционный курс по гитаре.
Подарок от PrimaNota.Ru, забирай!