PrimaNota.ru - самый крупный в мире бесплатный архив песенных текстов, аккордов, табулатур и нот


Ja Rule - Mesmerize - текст песни, таба, бас-таба, видео

Регистрация Запомнить меня
Войти через:  Facebook Google Twitter Vk Yandex Mail.ru

Ja Rule - Mesmerize - текст песни, таба, бас-таба, видео

Печатать
Просмотров: 262
-------------------------------------------------------------------------------
                             Mesmerize - Ja Rule
-------------------------------------------------------------------------------
Tabbed by: Tyler Bowles
E-mail: Tibblesnbits513@yahoo.com

Tuning: standard
 
   Heard it on the radio and it brought me back thought I'd figure out the hook 
   and leave it at that.

e|----------------------------|
B|--8h9--11-------8-----------|
G|-----------8h10---8---------|
D|----------------------------|
A|----------------------------|
E|----------------------------|
  
  Mess around play the lead rift then jam on D# through some improv in too
e|--6-x---11p10p8------6-x---8p6----|
B|--8-x-----------11---8-x-------8~-|
G|--8-x----------------8-x----------|
D|--8-x----------------8-x----------|
A|--6-x----------------6-x----------|
E|----x------------------x----------|

  Possibilities are endless...




************************************

| /   slide up
| \   slide down
| h   hammer-on
| p   pull-off
| ~   vibrato
| +   harmonic
| x   Mute note
| b   Bend
| pb  Pre-bend
| br  Bend release
| pbr Pre-bend release
| brb Bend release bend

************************************
Добавлено: 27.12.2015
Другие материалы по этой песне:
  • Аккорды и текст

Страница создана 18.04.2012
http://primanota.ru/ja-rule/mesmerize-chords.htm
Привет, Гость.
Предлагаем пройти революционный курс по гитаре.
Подарок от PrimaNota.Ru, забирай!