PrimaNota.ru - самый крупный в мире бесплатный архив песенных текстов, аккордов, табулатур и нот


J Ward - Dance Of Doom - таба, видео

Регистрация Запомнить меня
Войти через:  Facebook Google Twitter Vk Yandex Mail.ru

J Ward - Dance Of Doom - таба, видео

Печатать
Просмотров: 90
Уроки эстрадного вокала в Санкт-Петербурге
Dance Of Doom - J. Ward  

Tuning: EADGBe

The picking parts: 
        
   Pattern 1            
E-|----------0-----------------------0--------------|
B-|----3-----------3-----1-----1-----------1-----0--|
G-|-------0-----------0-----------0-----------0-----|
D-|-------------------------------------------------|
A-|-3-----------3-----------3-----------3-----------|
E-|-------------------------------------------------|

E-|----------0-----------------------0--------------|
B-|----0-----------0-----1-----1-----------1-----1--|
G-|-------0-----------0-----------0-----------0-----|
D-|-------------------------------------------------|
A-|-3-----------3-----------3-----------3-----------|
E-|-------------------------------------------------|

   Pattern 2
E-|----------0-----------------------0--------------|
B-|----1-----------1-----0-----0-----------0-----2--|
G-|-------2-----------2-----------2-----------2-----|
D-|-------------------------------------------------|
A-|-0-----------0-----------0-----------0-----------|
E-|-------------------------------------------------|

E-|----------0-----------------------0--------------|
B-|----1-----------1-----0-----0-----------0-----0--|
G-|-------2-----------2-----------2-----------2-----|
D-|-------------------------------------------------|
A-|-0-----------0-----------0-----------0-----------|
E-|-------------------------------------------------|

    Chorus 
E-|----------0-----------------------0--------------|
B-|----1-----------1-----1-----1-----------1-----1--|
G-|-------2-----------2-----------0-----------0-----|
D-|-3-----------3-----------------------------------|
A-|-------------------------3-----------3-----------|
E-|-------------------------------------------------|

   
E-|----------------------------------0--------------|
B-|----1-----1-----1-----1-----1-----------1-----1--|
G-|-------0-----------0-----------0-----------0-----|
D-|-------------0-----------------------0-----------|
A-|-2-----------------------0-----------------------|
E-|-------------------------------------------------|


    Interlude & Outro 
E-|----------3-----------0------------1p0-----------|
B-|----3-----------3-----------1-----------0-----0--|
G-|-------0-----------0-----------0-----------0-----|
D-|-------------------------------------------------|
A-|-3-----------3-----------3-----------------------|
E-|-------------------------------------------------|

E-|----------3-----------0------------1p0-----------|
B-|----3-----------3-----------1-----------0--------|
G-|-------0-----------0-----------0-----------0-----|
D-|-------------------------------------------------|
A-|-3-----------3-----------3-----------------------|
E-|-------------------------------------------------|
Intro

Pattern 1 x 2

Verse 1

Pattern 1 x 4   
Been dancing here now for awhile and it don't always make me smile 
Even when the band gets up to play 
The crowd has gathered from afar and surrounds us like a wind swept fire 
There's no chance now, if there ever was, to leave

Pattern 2 x 1
But I know that aint up to me as I feel the spirit in my feet 

Pattern 1 x 1   
What is happening, I can hardly believe 

Chorus x 3

Just how long can I go on, doing the dance of doom?
My head does pound my bones do ache and all they can do is croon
I'm wearing down this piece of ground, will it become my tomb?

Link

Verse Pattern 1 x 2     

Verse 2

Pattern 1 x 2
Staring out upon the crowd of faces shocked and awed
Now and then one of them might even join in for a chorus

Pattern 2 x 1
That's a move often regretted I can only sigh

Pattern 1 x 1    
Once in here it is clear, you can bid the sane ol' world good bye 

Chorus x 3

Just how long can I go on, doing the dance of doom?
My head does pound my bones do ache and all they can do is croon
I'm wearing down this piece of ground, will it become my tomb?

Interlude

Verse 3

Pattern 1 x 2   
The city fathers have called for prayer, in hope for some relief 
But the bedlam inside of each of us is far too deep to reach 

Pattern 2 x 1
Why bother now, I think, as the circus carries on

Pattern 1 x 1   
God has left and you'd better too before it catches on

Chorus x 3

Just how long can I go on, doing the dance of doom?
My head does pound my bones do ache and all they can do is croon
I'm wearing down this piece of ground, will it become my tomb?

Outro 
Добавлено: 14.09.2015
Другие материалы по этой песне:
  • Аккорды и текст

Страница создана 14.09.2015
http://primanota.ru/j-ward/dance-of-doom-chords.htm
Привет, Гость.
Предлагаем пройти революционный курс по гитаре.
Подарок от PrimaNota.Ru, забирай!