PrimaNota.ru - самый крупный в мире бесплатный архив песенных текстов, аккордов, табулатур и нот


J R Reyne - Montgomery - таба, видео

Регистрация Запомнить меня
Войти через:  Facebook Google Twitter Vk Yandex Mail.ru

J R Reyne - Montgomery - таба, видео

Печатать
Просмотров: 65
------------------------------------------------------------------------
JR Reyne- Montgomery
Transcribed from: https://www.youtube.com/watch?v=elIOwRse5sw
Transcribed by: Elliott Beenk
------------------------------------------------------------------------

Capo 2: All chords and tab relative to capo

Lick 1: Played during first part of verse one and two
                               G                              Em
e|-----------------------------3------------------------------0--------|
B|-----------------------------0------------------------------0--------|
G|-----------------------------0------------------------------0--------|
D|--------0--2--0--------------0----------0--2--0-------------2--------|
A|-----2------------2--0-------2-------2-----------2--0-------2--------|
E|--3----------------------3---3----3---------------------0---0--------|

Lick 2: Played during outro
     G                         G
e|---3-------------------------3-----------------------|
B|---0-------------------------0-----------------------|
G|---0-------------------------0-----------------------|
D|---0-------------------------0-----------------------|
A|---2---------0--2--3--2-0----2-----------------------|
E|---3-------3-----------------3-----------------------|

Verse 1:
G (Lick 1)
Not everybody gets along
G                           Em
Some rock the boat - go overboard
                       G
Not everybody leaves a mark
G                             Em    (pause)
Don't matter soon all will be thrown
                G
You may try to understand
G                              Em
The reason why you're here and how
                      G
Try to get your head around
                           Em         F    C
The infinite and stars and sound and the unknown


Chorus:
G        Bm  C        G
Leave it be    Montgomery
C                          G            D
Don't you sweat the small things Montgomery


Verse 2:
G (Lick One)                 G
Not everybody gets it right
                            Em
Some people keep on fucking up
                              G
Some people live, some people jump
                                Em (pause)
Some never try, some don't give up
                       G
So just take it day by day
                      Em
Try to go on your own way
                            G
And when it is all said and done
                         Em        F               C
Be able to look back and laugh and smile with some pride
G        Bm  C         G
Leave it be    Montgomery
C                   G            Bm        C
Don't you sweat the small things    Montgomery
D                 G         C
Something's gonna finish us off
D              G        C
Everyday could be our last
C                            G
It'll come too soon, yes it will


Solo:
G, Bm, C, G
C, G, D


Chorus:
G        Bm C           G 
Leave it be     Montgomery
C                   G                    D
Don't you sweat the small things Montgomery


Outro:
G (Lick Two)
If it's love that you want, if it's love that you need (x2)
If it's love that you want, come on and get it
If it's love that you need, come on and get it (x4)
G, C, G , Am, G
Добавлено: 22.10.2013
Другие материалы по этой песне:
  • Аккорды и текст

Страница создана 22.10.2013
http://primanota.ru/j-r-reyne/montgomery-chords.htm
Привет, Гость.
Предлагаем пройти революционный курс по гитаре.
Подарок от PrimaNota.Ru, забирай!