PrimaNota.ru - самый крупный в мире бесплатный архив песенных текстов, аккордов, табулатур и нот


J Mascis - Circle - аккорды и текст, видео

Регистрация Запомнить меня
Войти через:  Facebook Google Twitter Vk Yandex Mail.ru

J Mascis - Circle - аккорды и текст, видео

Печатать
Просмотров: 171
Уроки эстрадного вокала в Санкт-Петербурге
Авторы музыки: Edie Brickell, Kenny Withrow
Авторы текста: Edie Brickell
Circle
J Mascis
J Mascis - Circle (Edie Brickell and The Bohemians cover)
http://www.youtube.com/watch?v=N_LnTso4uJM
Tabbed by Knighty123

Capo 7th Fret

Chords Used
    C      Em7   Am    G     F   Gadd4
e---0------3-----0-----3----------3
B---1------3-----1-----0----------1*
G---0------0-----2-----0----------0
D---2------0-----2-----0----------0
A---3------2-----0-----2-----3----2
E----------0-----------3-----1----3
*Play a G and do some hammer-ons on that note

Intro - Few strums of the C chord

C  Em7                  Am        G
Me, I'm a part of your circle of friends
C    Em7               Am          G
And we notice you don't come around 
C  Em7         Am         G
Me, I think it all depends 
   C   Em7               Am      G
On you touching ground with us 
      C     Em7              Am              G           F
I quit, I give up, nothing's good enough for anybody else,
G
It seems
      C     Em7              Am              G           F
I quit, I give up, nothing's good enough for anybody else,
Gadd4
It seems
Am     G            F         G         Am
  And being alone is the best way to be
         G             F         G         Am
When I'm by myself it's the best way to be
         G             F         G         Am
When I'm all alone it's the best way to be
         G           F              G
When I'm by myself, nobody else can say goodbye

INTERLUDEY BIT
This little bit he plays arpeggios of each verse chord, I tried to tab it as close as what he plays
e-----0--------0-----------3--------3-----------0-----------------------3---------3---3-----|
B-----1--1--------1--------3--3--------3--------1-----------0h1p0-------0---------3---3-----|
G-----0--------------0-----0-------------0------2-----------------------0-------------0-----|
D-----2-----2--------------0-----0--------------2-----2-------------2---0-----0-------0-----|
A-----3-----3----------3---2-----2----------2---0-----0-------------0---2-----2-------------|
E-----------------------------------------------------------------------3-----3-------------|

F     G             


             C       Em7      Am
Everything is temporary anyway
G                      C    Em7        Am            G
  When the streets are wet, the colors slip into the sky
    C                Em7            Am                        G
But I don't know why that means you and I are, that means you and I
      C     Em7              Am              G           F
I quit, I give up, nothing's good enough for anybody else,
G
It seems
      C     Em7              Am              G           F
I quit, I give up, nothing's good enough for anybody else,
Gadd4
It seems

Am     G            F         G         Am
  And being alone is the best way to be
         G             F         G         Am
When I'm by myself it's the best way to be
         G             F         G         Am
When I'm all alone it's the best way to be
         G           F              G
When I'm by myself, nobody else can say...
C  Em7                 Am        G
Me, I'm a part of your circle of friends
   C  Em7                Am (let ring)
And we notice you don't come around 
Добавлено: 13.11.2013
Другие материалы по этой песне:
  • Аккорды и текст

Страница создана 13.11.2013
http://primanota.ru/j-mascis/circle-chords.htm
Привет, Гость.
Предлагаем пройти революционный курс по гитаре.
Подарок от PrimaNota.Ru, забирай!