PrimaNota.ru - самый крупный в мире бесплатный архив песенных текстов, аккордов, табулатур и нот


J Geils Band - My Angel Is The Centerfold - таба, видео

Регистрация Запомнить меня
Войти через:  Facebook Google Twitter Vk Yandex Mail.ru

J Geils Band - My Angel Is The Centerfold - таба, видео

Печатать
Просмотров: 196
           .:INTRO:.
|-----10-------------------------------------|
|(10)-12----12-10--------------------10------|   only play the first note 
|-------------12-12-9-12-12-9-12----12-12----|   second time round
|--------------------------------------------|
|--------------------------------------------|
|--------------------------------------------|

           .:Verse/Chorus:.
|--------------------------------------------|
|------------------------1-1-----------------|
|--------------------5-5-0-0-----------------|
|-5-5--x-x-x-x--3-3--5-5-5-5-----------------|
|-5-5--x-x-x-x--3-3--3-3-3-3-----------------|
|-3-3--x-x-x-x--1-1--------------------------|

            .:BRIDGE:.
|-0-0-0-0--0-0--0--2---0-0-0-0--0-0--2--2----|
|-0-0-0-0--3-3--1--3---0-0-0-0--3-3--1--3----|
|-1-1-1-1--3-3--0--2---1-1-1-1--3-3--0--2----|
|-2-2-2-2--3-3--2--0---2-2-2-2--3-3--0--0----|
|-2-2-2-2--0-0--3------2-2-2-2--0-0--2-------|
|------------------------------------3-------|

Intro x2
Verse x6
Bridge x2
Chorus/Verse x10
Bridge x2
Chorus/Verse x14
Bridge x2
Chorus/Verse x14
Intro x1
break
Chorus/Verse xtill end
Добавлено: 17.07.2012
Другие материалы по этой песне:
  • Аккорды и текст

Страница создана 17.07.2012
http://primanota.ru/j-geils-band/my-angel-is-the-centerfold-chords.htm
Привет, Гость.
Предлагаем пройти революционный курс по гитаре.
Подарок от PrimaNota.Ru, забирай!