PrimaNota.ru - самый крупный в мире бесплатный архив песенных текстов, аккордов, табулатур и нот


J Geils Band - Fright Night - аккорды и текст, видео

Регистрация Запомнить меня
Войти через:  Facebook Google Twitter Vk Yandex Mail.ru

J Geils Band - Fright Night - аккорды и текст, видео

Печатать
Просмотров: 111
Fright Night
J Geils Band
-------------------------------------------------------------------------------
                        FRIGHT NIGHT - J. Geils Band
-------------------------------------------------------------------------------
Tabbed by: Seismatters
Tuning: Standard E A D G B E

Main Riff (Intro)
e|---------------------------------------------------------------------------|
B|---------------------------------------------------------------------------|
G|----12-11-12----------------12-11-12---------------------------------------|
D|-10----------10-12-13-12-10----------10-12-13-12---------------------------| x 2
A|---------------------------------------------------------------------------|
E|---------------------------------------------------------------------------|

(Verse and Chorus)
e|---------------------------------------------------------------------------|
B|----13-12-13-------------13-12-13------------------------------------------|
G|-10----------10-12-13-10----------10-12-13---------------------------------|
D|---------------------------------------------------------------------------|
A|---------------------------------------------------------------------------|
E|---------------------------------------------------------------------------|

e|---------------------------------------------------------------------------|
B|---------------------------------------------------------------------------|
G|----12-11-12----------------12-11-12---------------------------------------|
D|-10----------10-12-13-12-10----------10-12-13-12---------------------------|
A|---------------------------------------------------------------------------|
E|---------------------------------------------------------------------------|

VERSE 1
   Cm                                       A#
   People say I'm crazy and I make no sense
       Cm
   But they don't understand the man's got influence
   A#     G#            A#              Cm    A#
   He's a gigolo, a liar, a man of many faces
      G#                 A#                 Cm   A#
   So don't be fooled by what you think you see 
        G#             A#              G
   He's gonna make his move on you and me

CHORUS
          Cm
   Fright Night (Fright Night)
                     A#  Cm
   Who's it gonna be tonight
                           A#  G#
   Lock your doors and windows tight
   A#                          Cm    A#
   Soon you'll all believe I'm right
   G#               A#                 Cm  
   We're all in for a most frightening night

VERSE 2
   Cm                                        A#
   Intuition tells me that it's time to blow
   Cm                                 A#
   But my sense of danger tells me no
        G#                    A#                Cm
   I've got to find a weakness to put an end to this
   G#                 A#          Cm
   Can't you see he's tearing us apart?
        G#             A#                      G
   I've got to drive a stake right through his heart

CHORUS
          Cm
   Fright Night (Fright Night)
                     A#  Cm
   Who's it gonna be tonight
                           A#  G#
   Lock your doors and windows tight
   A#                          Cm    A#
   Soon you'll all believe I'm right
   G#               A#                 Cm  
   We're all in for a most frightening night

BRIDGE CHORDS (Palm Muted)

   Cm - | Cm - | A# - | G# - | A# | Cm - | Cm - | A# - | G# - | A# |

BRIDGE RIFF

e|-----------------1---------------------------------------------------------|
B|-1---4-------------4-1---4-------------------------------------------------|
G|---------3---0---------------3---------------------------------------------|
D|-------------------------------3-5-3-5-------------------------------------| x2
A|---------------------------------------------------------------------------|
E|---------------------------------------------------------------------------|

BRIDGE END CHORDS

    G# --- | G# --- | A# --- | A#m - | G - |

VERSE 3
     Cm                                              A#
   I look into the mirror and it's as black as night
     Cm                                        A#
   I see it fall to pieces as my heart ignites
        G#                     A#                  Cm     A#
   Just waiting for the moment for that connecting thrill
         G#                 A#               Cm
   Don't make a move, we've got to keep real still
         G#               A#                  Cm
   We're waiting here and we're dressed up to kill

CHORUS
          Cm
   Fright Night (Fright Night)
                     A#  Cm
   Who's it gonna be tonight
                           A#  G#
   Lock your doors and windows tight
   A#                          Cm    A#
   Soon you'll all believe I'm right
   G#               A#                 Cm  
   We're all in for a most frightening night


"Welcome to Fright Night...for real..."
Добавлено: 04.12.2015
Другие материалы по этой песне:
  • Аккорды и текст

Страница создана 04.12.2015
http://primanota.ru/j-geils-band/fright-night-chords.htm
Привет, Гость.
Предлагаем пройти революционный курс по гитаре.
Подарок от PrimaNota.Ru, забирай!