PrimaNota.ru - самый крупный в мире бесплатный архив песенных текстов, аккордов, табулатур и нот


J Cole - Sparks Will Fly - таба, видео

Регистрация Запомнить меня
Войти через:  Facebook Google Twitter Vk Yandex Mail.ru

J Cole - Sparks Will Fly - таба, видео

Печатать
Просмотров: 143
Main riff throughout the song:

 1:----12-11-(9)/11-9----------12-11-9-11-(9)/11-9-------------------------|
 2:---------------------12----------------------------12-------------------|
 3:-------------------13----------------------------13---------------------|
 4:------------------------------------------------------------------------|
 5:------------------------------------------------------------------------|
 6:------------------------------------------------------------------------|

 1:--16-14-12-14-(9)/11-9---------9--12--16--------------------------------|
 2:-------------------------12---------------------------------------------|
 3:-----------------------13-----------------------------------------------|
 4:------------------------------------------------------------------------|
 5:------------------------------------------------------------------------|
 6:------------------------------------------------------------------------|

/  = slide
() = start of slide
Добавлено: 25.12.2013
Другие материалы по этой песне:
  • Аккорды и текст

Страница создана 11.09.2013
http://primanota.ru/j-cole/sparks-will-fly-chords.htm
Привет, Гость.
Предлагаем пройти революционный курс по гитаре.
Подарок от PrimaNota.Ru, забирай!