PrimaNota.ru - самый крупный в мире бесплатный архив песенных текстов, аккордов, табулатур и нот


J Cole - Nobodys Perfect - таба, видео

Регистрация Запомнить меня
Войти через:  Facebook Google Twitter Vk Yandex Mail.ru

J Cole - Nobodys Perfect - таба, видео

Печатать
Просмотров: 145
-------------------------------------------------------------------------------
                   Nobody's Perfect - J Cole feat. Missy Elliot
-------------------------------------------------------------------------------
Tabbed by: EaglesDudeNFL

@The_Real_ZachLP

Tuning: Standard (EADGBe)

This is the riff that plays throughout most of the song
Sometimes only the faster portion of the riff is played and repeated
e|-----------------------------------------------------------|
B|-----------------------------------------------------------|
G|--8h10p8-----------------8h10p8----------------------------|
D|---------11p8-----8-(11)-------11p8------------------------|
A|--------------11--------------------11----(8)--(11)--------|
E|-----------------------------------------------------(11)--|

e|-----------------------------------------------------------|
B|-----------------------------------------------------------|
G|--8h10p8-----------------8h10p8----------------------------|
D|---------11p8-----8-(11)-------11p8------------------------|
A|--------------11--------------------11---(8-11-8-11)-------|
E|-----------------------------------------------------(11)--|

e|-------------------------------------------------------------------------------|
B|-----------------------------------(11)--(11)----(9)h11p9--(9)h11p9--(9)h11p9--|
G|--8h10p8---------8h10p8------------(11)--(11)----(10)------(10)------(10)------|
D|---------8h11-----------8h11---------------------------------------------------|
A|--------------11-------------11------------------------------------------------|
E|-------------------------------------------------------------------------------|
   |***this part is faster********|






CHORUS(Missy Elliot)
e|-----------------------------------------------------------------------------------------------|
B|-----------------------------------------------------------------------------------------------|
G|--8------8---10---11h13--10-----10h11--10h13-------------8---10---11h13--10------11p10--11h13--|
D|--8------8---10---11-----11-----11-----11---------14b----8---10---11-----11------11-----11-----|
A|-----------------------------------------------------------------------------------------------|
E|-----------------------------------------------------------------------------------------------|

e|-----------------------------------------------------------------------------------------------|
B|-----------------------------------------------------------------------------------------------|
G|---------8---10---11h13--10-----11p10--11h13-------------8---10---11h13--10------11p10--11h13--|
D|---------8---10---11-----11-----11-----11----------------8---10---11-----11------11-----11-----|
A|-----------------------------------------------------------------------------------------------|
E|-----------------------------------------------------------------------------------------------|


************************************

| /   slide up
| \   slide down
| h   hammer-on
| p   pull-off
| b   Full Bend

************************************
Добавлено: 20.06.2013
Другие материалы по этой песне:
  • Аккорды и текст

Страница создана 20.06.2013
http://primanota.ru/j-cole/nobodys-perfect-chords.htm
Привет, Гость.
Предлагаем пройти революционный курс по гитаре.
Подарок от PrimaNota.Ru, забирай!