PrimaNota.ru - самый крупный в мире бесплатный архив песенных текстов, аккордов, табулатур и нот


The J Arthur Keenes Band - Congratulations - таба, видео

Регистрация Запомнить меня
Войти через:  Facebook Google Twitter Vk Yandex Mail.ru

The J Arthur Keenes Band - Congratulations - таба, видео

Печатать
Просмотров: 99
-------------------------------------------------------------------------------
                "Congratulations" - The J. Arthur Keenes Band
-------------------------------------------------------------------------------
Tabbed by: Sock_Munki
E-mail: podgua@yahoo.com

Tuning: Standard EADGBe - Capo on 1 (be careful. the tab fret numbers are according to the capo!)

   Congrat- u-la- tions.               im  really  hap-py  for you
e|-------------------------------------------------------------------------0-|
B|---------------------------------------------------------------------------|
G|--------------------(pause)--------------2---------------------------0-----|
D|-9--7-----5-3---2----------------------------------------3-----------------|
A|-10-8-----7-5---3----------------0---3---------------2-----------3---------|
E|-----------------------------3-------------------3-------------------------|


Am                F         C
   You've turned a beautiful hue


  So  Congrat- u-la- tions.         This is
e|-------------------------------------------|
B|-------------------------3-----------------|
G|-------------------------5-----------------|
D|----9--7-----5-3---4-----4-----------------|
A|----10-8-----7-5---5-----5-----------------|
E|----------------------(beats 2-8)----------|
                (1)      (buildup)

                            (pwr chords)
F                           (C   B    A)    G      F              C
just what you needed after  all that you've been     put through


   Congrat- u-la- tions.
e|--------------------------|
B|--------------------------|
G|--------------------------|
D|-9--7-----5-3---2---------|
A|-10-8-----7-5---3---------|
E|--------------------------|

Am           F        C    Am             F               C
   im really happy for you.   All of your dreams have come true
                 D7      Dm            C  
You've had such patience     Woo o o o o
           D7         F           Fm             C    D7 Dm            C
I've got another side.  But it's not worth my time           Woo o o o o
               D7              F           Fm              C
I've tried, oh god I've tried    But I'm way past my prime
                     G  F                            (C C Am F)x3 G G 
so congratulations          I'm really happy for you 

        F             Dm             F           Dm             F             Dm
this is just what you needed. I give up, I've conceded. this is just what you needed
      C   B    A      G            C
after all that you've been, put through
Добавлено: 31.07.2015
Другие материалы по этой песне:
  • Аккорды и текст

Страница создана 31.07.2015
http://primanota.ru/j-arthur-keenes-band/congratulations-chords.htm
Привет, Гость.
Предлагаем пройти революционный курс по гитаре.
Подарок от PrimaNota.Ru, забирай!