PrimaNota.ru - самый крупный в мире бесплатный архив песенных текстов, аккордов, табулатур и нот


Izia - That Night - таба, видео

Регистрация Запомнить меня
Войти через:  Facebook Google Twitter Vk Yandex Mail.ru

Izia - That Night - таба, видео

Печатать
Просмотров: 97
Hello guys! I thought that song was so awesome not only on acoustic guitar but also on
electric guitar. I just tabbed it by ear but I'm not so sure about the result so play and
tell me. If there is any corrections to make, don't hesitate. Watch the video for the 
strumming rhythm. That's my very first tab so please but fair (: If you have any 
questions: yamtheyam@gmail.com

IZIA - THAT NIGHT
YOUTUBE LINK: http://www.youtube.com/watch?v=QATrp_BGF0I

ENJOY AND HAVE A GOOD TIME! ;)

NO CAPO NEEDED - STANDARD TUNING

E| -------------------------------------------------|
B| -------------------------------------------------| PLAY THIS PART
G| -----------0-----------0------------------------ |        TWICE
D| --------0----------0-------------0----------0----|
A| -----1---------1--------------4----------3-------| --> INTRO X 2
E| --3------------------------5----------4----------|

E| -----3-------6-------5-------4--------3---------6-------5----------4---|
B| -----3-------6-------5-------4--------3---------6-------5----------4---| STRUM
G| -----3-------7-------6-------5--------3---------7-------6----------5---| FROM
D| --5------8-------7-------6-------5--------8--------7--------6-6--------| DOWN
A| --5------8-------7-------6-------5--------8--------7--------6-6--------| TO UP
E| --3------6-------5-------4-------3--------6--------5--------4-4--------|
    Stand by the door ...

E| --3-3----6-6-6-6-6----6-6-6-6-6----4-4-4-4-4----|
B| --3-3----6-6-6-6-6----6-6-6-6-6----4-4-4-4-4----|        STRUM THIS WHOLE
G| --3-3----7-7-7-7-7----6-6-6-6-6----5-5-5-5-5----| PART AND PLAY ALL ALONG
D| --5-5----8-8-8-8-8----6-6-6-6-6----6-6-6-6-6----|
A| --5-5----8-8-8-8-8----8-8-8-8-8----6-6-6-6-6----|
E| --3-3----6-6-6-6-6----9-9-9-9-9----4-4-4-4-4----| --> CHORUS
     Cut of your wings, and so it goes ...

E| -----------------------------6-----------11--|
B| -----------------------------6-----------11--|
G| ------0--6--7--3--0----------6-----------11--|
D| --5--------------------------6-----------11--|
A| ----------------------5--0---6-----------11--| --> MINI SOLO PART
E| -----------------------------6---4--4----11--|

E| -----3-------6-------5-------4--------3---------6-------5----------4---|
B| -----3-------6-------5-------4--------3---------6-------5----------4---|
G| -----3-------7-------6-------5--------3---------7-------6----------5---|
D| --5------8-------7-------6-------5--------8--------7--------6-6--------|
A| --5------8-------7-------6-------5--------8--------7--------6-6--------|
E| --3------6-------5-------4-------3--------6--------5--------4-4--------|
    I'll be around ...

E| --3-3----6-6-6-6-6----6-6-6-6-6----4-4-4-4-4----|
B| --3-3----6-6-6-6-6----6-6-6-6-6----4-4-4-4-4----|
G| --3-3----7-7-7-7-7----6-6-6-6-6----5-5-5-5-5----|    PLAY TWICE (X2)
D| --5-5----8-8-8-8-8----6-6-6-6-6----6-6-6-6-6----|
A| --5-5----8-8-8-8-8----8-8-8-8-8----6-6-6-6-6----|
E| --3-3----6-6-6-6-6----9-9-9-9-9----4-4-4-4-4----|
    Cut of your wings, and so it goes ...

E| -------------------------------------------------|
B| -------------------------------------------------|
G| -----------0-----------0------------------------ |      PLAY TWICE (X2)
D| --------0----------0-------------0----------0----|
A| -----1---------1--------------4----------3-------|
E| --3------------------------5----------4----------|

E| --3-3----6-6-6-6-6----6-6-6-6-6----4-4-4-4-4----|
B| --3-3----6-6-6-6-6----6-6-6-6-6----4-4-4-4-4----|
G| --3-3----7-7-7-7-7----6-6-6-6-6----5-5-5-5-5----|    PLAY THREE TIMES (X3)
D| --5-5----8-8-8-8-8----6-6-6-6-6----6-6-6-6-6----|
A| --5-5----8-8-8-8-8----8-8-8-8-8----6-6-6-6-6----|
E| --3-3----6-6-6-6-6----9-9-9-9-9----4-4-4-4-4----|
    Cut of your wings, and so it goes ...

E| --3-3--|
B| --3-3--| --> LITTLE OUTRO
G| --3-3--|
D| --5-5--|     STRUM THREE TIMES (X3)
A| --5-5--|
E| --3-3--|


LYRICS

Stand by the door
I come to you
Don't try to move
I come to you

Cut of your wings, and so it goes
Cut of your wings, and so it goes
You weren't supposed to meet me that night
You weren't supposed to meet me that night

I'll be around
Just next to you
I'll take your hand
The whole night trough

Cut of your wings, and so it goes
Cut of your wings, and so it goes
You weren't supposed to meet me that night
You weren't supposed to meet me that night
Cut of your wings, and so it goes
You weren't supposed to meet me that night
You weren't supposed to meet me that night
Cut of your wings, and so it goes
You weren't supposed to meet me that night
You weren't supposed to meet me that night.


Lyrics: http://www.musictory.fr/musique/Izia
Добавлено: 10.11.2013
Другие материалы по этой песне:
  • Аккорды и текст

Страница создана 10.11.2013
http://primanota.ru/izia/that-night-chords.htm
Привет, Гость.
Предлагаем пройти революционный курс по гитаре.
Подарок от PrimaNota.Ru, забирай!