PrimaNota.ru - самый крупный в мире бесплатный архив песенных текстов, аккордов, табулатур и нот


Izaline Calister - Wowi Karinjo - таба, видео

Регистрация Запомнить меня
Войти через:  Facebook Google Twitter Vk Yandex Mail.ru

Izaline Calister - Wowi Karinjo - таба, видео

Печатать
Просмотров: 58
Wow'I Karinjo
        Intro
e---------3-------------------------|-----------3--------7---8---7---5---3---------|
B-------------3---------------------|---------------3------------------------------|
G----4-------------4----5-----5----|-----4-----------------------------------------|
D-----------------------------------|----------------------------------------------|
A-----------------------------------|----------------------------------------------|
E-----------------------------------|----------------------------------------------|

e---------3-------------------------|-----------3--------7---8---7---5---3---------|
B-------------3---------------------|---------------3------------------------------|
G------------------4----5-----5----|-----4-----------------------------------------|
D-----------------------------------|----------------------------------------------|
A-----------------------------------|----------------------------------------------|
E-----------------------------------|----------------------------------------------|
2x
        Komienso te na sera
e---------3-------------------------|-----------3--------7---8---7---5---3---------|
B-------------3---------------------|---------------3------------------------------|
G------------------4----5-----5----|-----4-----------------------------------------|
D-----------------------------------|----------------------------------------------|
A-----------------------------------|----------------------------------------------|
E-----------------------------------|----------------------------------------------|

        Despues di sera
e---------3-------------------------|-----------3--------7---8---7---5---3---------|
B-------------3---------------------|---------------3------------------------------|
G------------------4----5-----5----|-----4-----------------------------------------|
D-----------------------------------|----------------------------------------------|
A-----------------------------------|----------------------------------------------|
E-----------------------------------|----------------------------------------------|
Добавлено: 16.07.2013
Другие материалы по этой песне:
  • Аккорды и текст

Страница создана 16.07.2013
http://primanota.ru/izaline-calister/wowi-karinjo-chords.htm
Привет, Гость.
Предлагаем пройти революционный курс по гитаре.
Подарок от PrimaNota.Ru, забирай!