PrimaNota.ru - самый крупный в мире бесплатный архив песенных текстов, аккордов, табулатур и нот


Izal - Aire Y Hueso - таба, видео

Регистрация Запомнить меня
Войти через:  Facebook Google Twitter Vk Yandex Mail.ru

Izal - Aire Y Hueso - таба, видео

Печатать
Просмотров: 65
-------------------------------------------------------------------------------
                             Aire y hueso - Izal
-------------------------------------------------------------------------------
Tabbed by: Jorge Azor
E-mail: jorge_azore@hotmail.com

Tuning: Standard (eBGDAE)

                                     --> Repetir desde aquí/Repeat from here
e|----------------------------------||--------------------------------|
B|----------------------------------||--------------------------------|
G|------8----------------8----------||------4---------------4---------|
D|--6--------6---6---6--------6---6-||--6-------6---6---6-------6---6-|
A|7---7--------7---7---7--------7---||6---6-------6---6---6-------6---|
E|----------------------------------||--------------------------------|

e|----------------------------------|--------------------------------|
B|----------------------------------|--------------------------------|
G|----------------------------------|--------------------------------|
D|------9---------------9-----------|------8---------------8---------|
A|--9-------9---9---9-------9---9---|--9-------9---9---9-------9---9-|
E|7---7-------7---7---7-------7-----|6---6-------6---6---6-------8---|
                                  <--  x2
e|----------------------------------||
B|----------------------------------||
G|------9----------------9----------||
D|--7--------7---7---7--------7---7-||
A|8---8--------8---8---8--------8---||
E|----------------------------------||

No ha sido tan fácil, 
No ha sido tan fácil, 
Racionalizar el juego y 
Que no haya perdedores. 

No todo nos vale, 
No todo nos vale, 
Las reglas cambiaron 
Y pasamos a mayores. 

              G#5
Vientos de levante, 
              B5
Vientos de levante, 
              F#5  
Levantan las faldas 
                 E5
De vecinas y cantantes, 

Era inevitable. 

e|---------------------------||
B|---------------------------||
G|------------3-3-3-4-4------||
D|7-7-7-5-5-5----------------||
A|------------1-1-1-2-2------||
E|5-5-5-3-3-3----------------||

G#m      EM          BM
Tanto domingo nos dejó 
   C#m
En aire y hueso. 
  G#m      EM             BM
Fueron llegando cada vez 
      C#m
Un poco más lejos. 
G#m       EM          BM
Fue divertido contemplar 
     C#m               G#m
El crecimiento imparable 
EM
De lo que era solo un juego. 


e|----------------------------------||--------------------------------|
B|----------------------------------||--------------------------------|
G|------8----------------8----------||------4---------------4---------|
D|--6--------6---6---6--------6---6-||--6-------6---6---6-------6---6-|
A|7---7--------7---7---7--------7---||6---6-------6---6---6-------6---|
E|----------------------------------||--------------------------------|

e|----------------------------------|--------------------------------|
B|----------------------------------|--------------------------------|
G|----------------------------------|--------------------------------|
D|------9---------------9-----------|------8---------------8---------|
A|--9-------9---9---9-------9---9---|--9-------9---9---9-------9---9-|
E|7---7-------7---7---7-------7-----|9---9-------9---9---9-------9---|
                                  <--  x2
e|----------------------------------||
B|----------------------------------||
G|------9----------------9----------||
D|--7--------7---7---7--------7---7-||
A|8---8--------8---8---8--------8---||
E|----------------------------------||

No han sido tan malos, 
No han sido tan malos 
Los nuevos encuentros 
En las celdas del verano. 
Permiso, debo quedarme quieto. 
Si pienso en movimIento, 
Si pienso en movimiento, 

        G#5                B5
Ya solo tengo que ser más viejo. 
             F#5
Me queda invierno 
          E5
Entre los dedos. 
          G#5
Caeremos juntos, 
            B5
Si es que caemos. 
            F#5
Me sobra impulso
         e5
Para lanzarnos más lejos. 


G#m      EM          BM
Tanto domingo nos dejó 
   C#m
En aire y hueso. 
  G#m      EM             BM
Fueron llegando cada vez 
      C#m
Un poco más lejos. 
G#m       EM          BM
Fue divertido contemplar 
     C#m               G#m
El crecimiento imparable 
EM
De lo que era solo un juego.


(G#m       EM       BM       C#m) x3
(G#m       EM       EM       EM)

(BM       C#m       G#m       G#m) x2

BM       C#m        G#m
Tanto domingo nos dejó...
BM         C#m        G#m
Fueron llegando cada vez...
BM        C#m         G#m
Fue divertido contemplar...
BM       C#m        G#m
Lo que era solo un juego...
BM       C#m        G#m
Lo que era solo un juego...
Добавлено: 24.06.2016
Другие материалы по этой песне:
  • Аккорды и текст

Страница создана 24.06.2016
http://primanota.ru/izal/aire-y-hueso-chords.htm
Привет, Гость.
Предлагаем пройти революционный курс по гитаре.
Подарок от PrimaNota.Ru, забирай!