PrimaNota.ru - самый крупный в мире бесплатный архив песенных текстов, аккордов, табулатур и нот


Iyeoka - The Yellow Brick Song - бас-таба, видео

Регистрация Запомнить меня
Войти через:  Facebook Google Twitter Vk Yandex Mail.ru

Iyeoka - The Yellow Brick Song - бас-таба, видео

Печатать
Просмотров: 126
The Yellow Brick Song
Ieyoka

120bpm
4/4

     New Track
     E    E    E    E    E    E    E    E     E    E    E    E    E    E    E    E
G ||*---------------------------------------|-----------------------------------------|
D ||----------------------------------------|-----------------------------------------|
A ||-5----5---------5----5----5---------5---|-----------------------------------------|
E ||*---------------------------------------|-1----1---------1----1----1---------1----|


                                                                                   10x
    E    E    E    E    E    E    E    E      E    E    E    E    E    E    E    E
  |-----------------------------------------|----------------------------------------*|
  |-----------------------------------------|-----------------------------------------|
  |-----------------------------------------|-1----1---------1----0----0----3----0----|
  |-3----3---------3----3----3---------3----|----------------------------------------*|


+------------------------------------------+
| Duration Legend                          |
+------------------------------------------+
| W     | Whole note                       |
| H     | Half note                        |
| Q     | Quarter note                     |
| E     | Eighth note                      |
| S     | Sixteenth note                   |
| T     | Thirtysecond note                |
| X     | Sixtyfourth note                 |
| Q.    | Dotted quarter note              |
| |-n-| | n-tuplet                         |
+------------------------------------------+
Добавлено: 25.12.2015
Вам также может быть интересно:
Другие материалы по этой песне:
  • Аккорды и текст

Страница создана 25.12.2015
http://primanota.ru/iyeoka/yellow-brick-song-chords.htm
Привет, Гость.
Предлагаем пройти революционный курс по гитаре.
Подарок от PrimaNota.Ru, забирай!