PrimaNota.ru - самый крупный в мире бесплатный архив песенных текстов, аккордов, табулатур и нот


Iwrestledabearonce - You Aint No Family - текст песни, таба, видео

Регистрация Запомнить меня
Войти через:  Facebook Google Twitter Vk Yandex Mail.ru

Iwrestledabearonce - You Aint No Family - текст песни, таба, видео

Печатать
Просмотров: 207
hey this is my version of you aint no family

its such a awesome song to play and weird in parts :)
im not 100% but it good enough plz rate and all comments are welcome

its tuned to drop B

check out my over tab for both guitar parts :)

here goes

|------------------|-------------------------------------------------|
|------------------|----14-17--14-17--13-16--13-16--14-17--14-17-----|
|------------------|--15-----15-----14-----14-----15-----15----------|
|------------------|-------------------------------------------------|
|-5----4----5----4-|--------------------------------------------5--4-|
|--0000-0000-0000--|---------------------------------------------00--|

|----------------------------------------------------------|
|---10-13--10-13--9-12--9-12--10-13--10-13--------11-13-15-|
|-11-----11-----10----10----11-----11-----10-11-13---------|
|----------------------------------------------------------|
|----------------------------------------------------------|
|----------------------------------------------------------|


|----------------------------------------------|
|--15--18--10-8--13----------------------------|
|---x---x--x--x--x-----------------------------|
|--12--15--7--5--10----------------------------|
|----------------------------------------------|
|----------------------------------------------|

|----------------------------------------------|
|----------------------------------------------|
|----------------------------------------------|
|----------------------------------------------|x2
|--0-0000-0-0-0-----00-00----------------------|
|--0-0000-0-0-0-----00-00----------------------|

|--------------------------------------------------------|
|----------------99--------------------------99----------|
|--------------77--99----------------------77--99--------|
|--99----88------------------99----88------------------0-|
|----8877--7766----------------8877--7766--------6-5-3-0-|
|--------------------66553300--------------------6-5-3-0-|
                                
|------------------------------------------------------------------------|
|------------------------------------------------------------------------|
|------------------------------------------------------------------------|
|--3-0---3-0---3-0---3-0------------------------------------------3------|
|--3-0---3-0---3-0---3-0--------3h5--5p3---------------3h5--5p3----53h5--|
|--3-0---3-0---3-0---3-0--00-3h5---00---5p3-2h33-00-3h5---00---5p0-------|
                                    play this riff twice

|------------------------------------------------------------------------|
|------------------------------------------------------------------------|
|------------7/6-----------7/6----------------------7/6--------------7/6-|
|------------6/5-----------6/5----------------------6/5-7*-----------6/5-|
|--------3h5-5/4-------3h5-5/4-00-0-0-0-0-------3h5-5/4----------3h5-5/4-|
|--00-3h5--------00-3h5--------00-0-0-0-0-00-3h5-----------00-3h5--------|

|------------------------------------------------------------------------|
|-------------------------------------------------6h8h10-----------------|
|---------7/6-------7/6\7/6-------7/6-------6h8h10---------7/6\9/6\7/6---|x4
|---------6/5-------6/5\6/5-------6/5----------------------6/5\8/5\6/5---|
|---------5/4-------5/4\5/4-------5/4----------------------5/4\7/4\5/4---|
|--000-000---000-000-------000-000---000-000-----------------------------|

weird sounding bit:

not 100% sure but i watched them play
it live and its somewhere around there
|---------------------------------|
|----------------6p0--------------|
|-------7p0---------7p0-----------|
|--0-6p0---6p0-0-------6p0--------|
|---------------------------------|
|---------------------------------|

lead bit over top
|--------17------------|
|---13h15--18-15-17----|
|----------------------|x3
|----------------------|
|----------------------|
|----------------------|

it sound like pinch harmonics to me but u can play
it as chords or what ever u think sounds best
|----------------------|--------------------|
|----------------------|--------------------|
|----------------------|--------------------|
|----------------------|--------------------|
|--7*-8*-5*------------|--7*-8*-5*----------|
|-----------000000000--|----------00305020--|
                         last time

|------------------------------------------|---------------------------|
|------------------------------------------|---------------------------|
|----10/9--9\10-14-15-14--12/14------------|---------------------------|
|-----x-x--x-x--x--x--x----x-x----------x3-|---------------------------|
|-----8/7--7\8--12-13-12--10/12------------|---------------------------|
|--00----------0--0--0--00------00335522---|-003355227733552277335522--|

country bit:
|-----------------------------------------------------------------|
|-------11-11-----11-11-------------------11-11------11-11--------|
|--11b12-----11b12------8-8-8--8-8-8-11b12-----111b12------8-8-8--|
|-----------------------8-8-8--8-8-8-----------------------8-8-8--|
|-----------------------------------------------------------------|
|-----------------------------------------------------------------|

|-------------------------------------------------|
|-------11-11-----11-11---------------------------|
|--11b12-----11b12------8-8-8--8-8-8----11-11-11--|
|-----------------------8-8-8--8-8-8----11-11-11--|
|-------------------------------------------------|
|-------------------------------------------------|

lead bit over top:
should be plyed with a slide          
|---------------------------|
|--16-----------------------|
|-----17-15-17--------------|
|--------------17-15-13-----|
|---------------------------|
|---------------------------|

the end he uses a wammy bar on the pinch hrmonics but if 
u dont have one u can use a pedal witch goes down an octive
i use that on my boss me-50

|--------------------------------t12p9p6t13p9p6t12p9p6t13p9p6--|
|-----------------------0*-------------------------------------|
|----------0*--------------------------------------------------|
|--0-3-2-0------0-3-2-0------0-3-------------------------------|
|--0-3-2-0------0-3-2-0------0-3-------------------------------|
|--0-3-2-0------0-3-2-0------0-3-------------------------------|

thats pretty much it let us kno if there are any problems with it
and rate plz :)

cheers for checking it out and hope u enjoy :)
Добавлено: 04.03.2012
Другие материалы по этой песне:

Страница создана 04.03.2012
http://primanota.ru/iwrestledabearonce/you-aint-no-family-chords.htm
Привет, Гость.
Предлагаем пройти революционный курс по гитаре.
Подарок от PrimaNota.Ru, забирай!