PrimaNota.ru - самый крупный в мире бесплатный архив песенных текстов, аккордов, табулатур и нот


Iwrestledabearonce - Danger In The Manger - таба, видео

Регистрация Запомнить меня
Войти через:  Facebook Google Twitter Vk Yandex Mail.ru

Iwrestledabearonce - Danger In The Manger - таба, видео

Печатать
Просмотров: 146
Song: Danger In The Manger
Band: iwrestledabearonce
Album: It's All Happening

Remember it's played REALLY fast
|-----------------------------------------------------------------|
|-----------------------------------------------------------------|
|-----7-----7-----7-----7-----7-----------------------------------|
|-5-8---5-8---5-8---5-8---5-8---8-----7-----7-----7-----7-----7---|
|---------------------------------5-8---5-8---5-8---5-8---5-8---8-|
|-----------------------------------------------------------------|

|------9------9------9------9------9-----------------------------------------------|
|-8-11---8-11---8-11---8-11---8-11---11------10------10------10------10------10----|
|---------------------------------------7-10----7-10----7-10----7-10----7-10----10-|
|----------------------------------------------------------------------------------|
|----------------------------------------------------------------------------------|
|----------------------------------------------------------------------------------|
Добавлено: 24.04.2012
Другие материалы по этой песне:

Страница создана 24.04.2012
http://primanota.ru/iwrestledabearonce/danger-in-the-manger-chords.htm
Привет, Гость.
Предлагаем пройти революционный курс по гитаре.
Подарок от PrimaNota.Ru, забирай!