PrimaNota.ru - самый крупный в мире бесплатный архив песенных текстов, аккордов, табулатур и нот


Iwasaki Taku - Nikopol - таба, видео

Регистрация Запомнить меня
Войти через:  Facebook Google Twitter Vk Yandex Mail.ru

Iwasaki Taku - Nikopol - таба, видео

Печатать
Просмотров: 139
                             Nikopol - Taku Iwasaki
                           Gurren Lagann Viral Theme
Tabbed by:Bruno Rezende
E-mail:kyosonmorew@gmail.com

First tab,sounds pretty good to me ;)

Tuning: C Standard

 INTRO
c |----------------------------------------------------------------------------|
G |----------------------------------------------------------------------------|
D#|----------------------------------------------------------------------------|
A#|-55-6-3-555-6-8-55-6-3x--55-6-3-555-8-6-55-6-5x-----------------------------|
F |-55-6-3-555-6-8-55-6-3x--55-6-3-555-8-6-55-6-5x-----------------------------|
C |-33-4-1-333-4-6-33-4-1x--33-4-1-333-6-4-33-4-3x-----------------------------|

 The song goes like this
c |----------------------------------------------------------------------------|
G |----------------------------------------------------------------------------|
D#|----------------------------------------------------------------------------|
A#|-55-6-3-555-6-8-55-6-3-555-3-1-55-6-3-555-6-8-55-6-3-555-8-6----------------|
F |-55-6-3-555-6-8-55-6-3-555-3-1-55-6-3-555-6-8-55-6-3-555-8-6----------------|
C |-33-4-1-333-4-6-33-4-1-333-1-1-33-4-1-333-4-6-33-4-1-333-6-4----------------|


 The chorus i only used
A#|-55~------5~--------|
F |-55~------5~--------|
C |-33~------3~--------|x4
Добавлено: 03.09.2015
Вам также может быть интересно:
Другие материалы по этой песне:
  • Аккорды и текст

Страница создана 03.09.2015
http://primanota.ru/iwasaki-taku/nikopol-chords.htm
Привет, Гость.
Предлагаем пройти революционный курс по гитаре.
Подарок от PrimaNota.Ru, забирай!