PrimaNota.ru - самый крупный в мире бесплатный архив песенных текстов, аккордов, табулатур и нот


Iwan Rheon - Pickpocket - таба, видео

Регистрация Запомнить меня
Войти через:  Facebook Google Twitter Vk Yandex Mail.ru

Iwan Rheon - Pickpocket - таба, видео

Печатать
Просмотров: 378
Уроки эстрадного вокала в Санкт-Петербурге
Ok Guys bear with me cuz this is just the beta version. help is extremely welcome
as i bearly have anything but there is no other tab for this song.

sumit like this

e]-----x-----|    (ring)
B]-----7-----|
G]-----9-----|
D]-----8-----|
A]-----0-----|
E]-----0-----|


e]----------------7-----9-------4-4-4-4-4-4---------0-----|
B]---7---------------7-----7----6-6-6-6-6-6-----0---2---7-|
G]------9-9-9-9------9-----7----6-6-6-6-6-6-----2---2---9-|
D]------8-8-8-8------8-----8----3-3-3-3-3-3-----2---1---8-|
A]------7-7-7-7------7-----7----4-4-4-4-4-4-----2---0---7-|
E]------7-7-7-7------7-----7----4-4-4-4-4-4-----0---0---7-|  (x2)


e]---5----4-5---|
B]---7----6-7---|
G]---7----6-7---|
D]---6----4-6---|
A]---5----4-5---|
E]---5----4-5---| (x2)


As I say BETA VERSION. Any Help? ezijoe@gmail.com
Im goin out so ill probably work out the rest later...unless i forget
Добавлено: 27.10.2013
Другие материалы по этой песне:
  • Аккорды и текст

Страница создана 27.10.2013
http://primanota.ru/iwan-rheon/pickpocket-chords.htm
Привет, Гость.
Предлагаем пройти революционный курс по гитаре.
Подарок от PrimaNota.Ru, забирай!