PrimaNota.ru - самый крупный в мире бесплатный архив песенных текстов, аккордов, табулатур и нот


Ivy League - Funny How Love Can Be - аккорды и текст, видео

Регистрация Запомнить меня
Войти через:  Facebook Google Twitter Vk Yandex Mail.ru

Ivy League - Funny How Love Can Be - аккорды и текст, видео

Печатать
Просмотров: 136
Funny How Love Can Be
Ivy League
Artist: The Ivy League
Song: Funny how love can be
Tabbed by: David John
22nd July 2013

Tuning: Standard

************************************************************************

           (D)
e|------|---h2--2---0--3-p2--h3-p2--h3-p2-------|
B|------|---3----------3------------------------|
G|------|---2----------2------------------------|
D|----0-|---0----------0----------------------0-|
A|--0---|-----------------------------------0---|
E|------|---------------------------------------|

    (D)                              A
e|---h2--2---0--3-p2--h3-p2--h3-p2---0---|
B|---3----------3--------------------2---|
G|---2----------2--------------------2---|
D|---0----------0--------------------2---|
A|-----------------------------------0---|
E|---------------------------------------|


G             A              D           A
   There she goes, with her nose in the air,
   G       A       D       D D   D D   D D
Funny how love can be-----,
G          A              D             A
   Wonder why she pre - tends I'm not there,
  G        A       D    A      G        A       D    D D   D D   D D
Funny how love can be, girl, funny how love can be!


G            A              D           A
   There she is, with that look in her eye,
  G          A      D        D D   D D   D D
Hasn't got time for me-----,
G            A              D        A
   Does she know how it's making me cry?
  G        A       D    A      G        A       D    D D   D D   D D
Funny how love can be, girl, funny how love can be!


G           A        D      G               A       D
   What a thing to happen,     left with - out a friend,
G          A         D      Bm        E            A7sus4   A7
   What a thing to happen, funny how true love can end---------!


G          A            D            A
   I can tell that she just doesn't care,
 G         A        D         D D   D D   D D
How can I make her see-----?
G          A            D           A
   I'm in love, and it just isn't fair,
  G        A       D    A      G        A       D    D D   D D   D D
Funny how love can be, girl, funny how love can be!


G          A        D             A         G        A       D
   Ooo---, oo -oo, oo---, oo -oo, oo -oo, funny how love can be,
G          A        D               A       G        A       D    A
   Ooo---, oo -oo, oo---, oo -oo, oo -oo, funny how love can be, girl,
  G         A      D
Funny how love can be----------------------------!
               e|------h2--2--0--3-p2--h3-p2--h3------|
               B|-------3--------3--------------------|
               G|-------2--------2--------------------|
               D|---0------------0--------------------|
               A|---------------------------------0---|
               E|-------------------------------------|


               e|------h2--2--0--3-p2--h3-p2--h3------|
               B|-------3--------3--------------------|
               G|-------2--------2--------------------|
               D|---0------------0--------------------|
               A|---------------------------------0---|
               E|-------------------------------------|


               e|------h2--2--0--3-p2--h3-p2--h3------|---2---||
               B|-------3--------3--------------------|---3---||
               G|-------2--------2--------------------|---2---||
               D|---0------------0--------------------|---0---||
               A|---------------------------------0---|-------||
               E|-------------------------------------|-------||

***********************************************************************
G  =  320033    D =  xx0233   A7sus4 = x02030
A  =  x02220    Bm =  x24432   A7     = x02020
D  =  xx0232    E  =  022100
Добавлено: 03.10.2013
Другие материалы по этой песне:
  • Аккорды и текст

Страница создана 07.05.2012
http://primanota.ru/ivy-league/funny-how-love-can-be-chords.htm
Привет, Гость.
Предлагаем пройти революционный курс по гитаре.
Подарок от PrimaNota.Ru, забирай!