PrimaNota.ru - самый крупный в мире бесплатный архив песенных текстов, аккордов, табулатур и нот


Ivory Knight - Up From The Ashes - таба, видео

Регистрация Запомнить меня
Войти через:  Facebook Google Twitter Vk Yandex Mail.ru

Ivory Knight - Up From The Ashes - таба, видео

Печатать
Просмотров: 104
                           Up from the Ashes                                 


Band:  Ivory Knight, www.ivoryknight.com
Song:  Up From the Ashes
Album: Unconscience
Unconscience was mixed and mastered by Jeff Waters of Annihilator fame. 
The artwork was done by acclaimed artist Gyula Havanscak, who also did 
Annihilator's "All for You" album.  
Both Unconscience and Ivory Knight's debut album "Up from the Ashes"
are available at CD Baby:  http://www.cdbaby.com/cd/ivoryknight2

Copyright (c)  2004
Version 1.0 - May 31, 2006
Created with Guitar-Pro 5

Transcribed By: Rob Gravelle, www.robgravelle.com
Email:          blackjacques@musician.org



Duration Legend
---------------
W - whole
H - half
Q - quarter
E - 8th
S - 16th
T - 32nd
X - 64th
. - note dotted
|-n-|  - n-tuplets


Tablature Legend
----------------
L - tied note
x - dead note
g - grace note
(n) - ghost note
> - accentuded note
NH - natural harmonic
AH - artificial harmonic
TH - tapped harmonic
SH - semi harmonic
PH - pitch harmonic
h - hammer on
p - pull off
b - bend
br - bendRelease
pb - preBend
pbr - preBendRelease
brb - bendReleaseBend
\n/ - tremolo bar dip
\n - tremolo bar dive
-/n - tremolo bar Release up
/n\ - tremolo bar inverted dip
/n - tremolo bar return
-\n - tremolo bar Release down
S - shift slide
s - legato slide
/ -  slide into from below or out of upwards
\ -  slide into from above or out of downwards
~ - vibrato
W - wide vibrato
tr - trill
TP - tremolo picking
T - tapping
S - slap
P - pop
< - fade in
^ - brush up
v - brush down


Tunning E A D G B E       

115 Bpm - Driving Rock


Rhythm Guitar
                    Pick gliss                                 
                                     E5                 E5-    
     H        Q     Q            S S E  S S E  S S E  S E   S  
E||---------------------------|------0------0------0----0---0-|
B||---------------------------|------0------0------0----0---0-|
G||---------------------------|------9------9------9----9---9-|
D||---------------------------|------9------9------9----8---8-|
A||---------------------------|------7------7------7----7---7-|
E||-----------------x\--------|--0-0----0-0----0-0----0-------|


      E5                 E5-                                     
  S S E  S S E  S S E  S E.     S S S S S S S S S S S S S S S S  
------0------0------0----0---|----------------------------------|
------0------0------0----0---|----------------------------------|
------9------9------9----9---|----------------------------------|
------9------9------9----8---|----------------------------------|
------7------7------7----7---|----------------------------------|
--0-0----0-0----0-0----0-----|--0-0-3-2-0-5-2-0-7-5-0-8-L-8-7-8-|


  S S E  S  S S S S E  S S S E     S S S S S S S S S S S S E  S S  
--------------------------------|---------------------------------|
--------------------------------|---------------------------------|
--------------------------------|---------------------------------|
--------------------------------|---------------------------------|
------7--5h-7---7-L-5--5-7-5-7--|-----------------------------0-0-|
--0-0---------0-----------------|--0-0-3-2-0-5-2-0-7-5-0-8-L------|


  B5  C5    D5        D#5-                                          
  E.  S  E  E  S E  S S    S S S    S S S S S S S S S S S S E  S S  
---------------------------------|---------------------------------|
---------------------------------|---------------------------------|
--4---5--L--7--L-7--7-8----8-8-8-|---------------------------------|
--4---5--L--7--L-7--7-7----7-7-7-|---------------------------------|
--2---3--L--5--L-5--5-6----6-6-6-|---------------------------------|
---------------------------------|--0-0-3-2-0-5-2-0-7-5-0-8-L--7-8-|


  S S E  S  S S S S E  S S S E     S S S S S S S S S S S S E  S S  
--------------------------------|---------------------------------|
--------------------------------|---------------------------------|
--------------------------------|---------------------------------|
--------------------------------|---------------------------------|
------7--5h-7---7-L-5--5-7-5-7--|-----------------------------0-0-|
--0-0---------0-----------------|--0-0-3-2-0-5-2-0-7-5-0-8-L------|


                                    1st verse                              
  B5  C5    D5        D#/5-            E5                             
                                          |-3-|       |-3-|           
  E.  S  E  E  S E  S S     S S S      E  S S S E  E  S S S E  E  E   
----------------------------------||---0-----------0-----------0--0--|
----------------------8-----8-8-8-||---0-----------0-----------0--0--|
--4---5--L--7--L-7--7-8-----8-8-8-||*--9-----------9-----------9--9--|
--4---5--L--7--L-7--7-7-----7-7-7-||*--9-----------9-----------9--9--|
--2---3--L--5--L-5--5-6-----6-6-6-||---7-----------7-----------7--7--|
----------------------------------||------0-0-0-0-----0-0-0-0--------|


   C/E                                 C5                             
      |-3-|        |-3-|                  |-3-|       |-3-|           
   E  S S S E   E  S S S E   E   E     E  S S S E  E  S S S E  E  E   
------------------------------------|--------------------------------|
------------------------------------|--------------------------------|
---9------------9------------9---9--|--5-----------5-----------5--5--|
--10-----------10-----------10--10--|--5-----------5-----------5--5--|
---7------------7------------7---7--|--3--3-3-3-3--3--3-3-3-3--3--3--|
------0-0-0-0------0-0-0-0----------|--------------------------------|


  D5            D#5-                E5                             
                                       |-3-|       |-3-|           
  E  S S S S E  E    S S S S S S    E  S S S E  E  S S S E  E  E   
---------------------------------|--0-----------0-----------0--0--|
---------------------------------|--0-----------0-----------0--0--|
--7----7-L---7--8------8-L---8-8-|--9-----------9-----------9--9--|
--7----7-L---7--7------7-L---7-7-|--9-----------9-----------9--9--|
--5--5-5-L-5-5--6----6-6-L-6-6-6-|--7-----------7-----------7--7--|
---------------------------------|-----0-0-0-0-----0-0-0-0--------|


                                    _____________________
                                   | 1
   C/E                               C5   B5   A5   G5    
      |-3-|        |-3-|                                  
   E  S S S E   E  S S S E   Q       Q    Q    Q    Q     
----------------------------------|----------------------|
----------------------------------|----------------------|
---9------------9------------9----|--5----4----2---------|
--10-----------10-----------10----|--5----4----2----5----|
---7------------7------------7----|--3----2----0----5----|
------0-0-0-0------0-0-0-0--------|-----------------3----|


_______________________________   _______________________
                               | |2
  D5                               D5   C5   B5   G5    
  E  E  E  E  S  S  S  S Q         Q    Q    Q    Q     
-------------------------------||----------------------|
--3----------------------------||----------------------|
--2--------0--2h-4p-2p-0-2----*||--7----5----4---------|
--0--2--4---------------------*||--7----5----4----5----|
-------------------------------||--5----3----2----5----|
-------------------------------||-----------------3----|


pre-chorus
  A5           C5                                       
  E.  S S S E  E.  S S S E     E.  S E  E  E  E  E  E   
----------------------------|--------------------------|
----------------------------|--------------------------|
--2---2-L---2--5---5-L---5--|--------------------------|
--2---2-L---2--5---5-L---5--|--------------0-----------|
--0---0-L-0----3---3-L-3----|------2-L--------3--2-----|
----------------------------|--3--------3-----------3--|


  A5           C5                                            
                                                 |--3--|     
  E.  S S S E  E.  S S S E     E.  S E  E  E  E  S  S  S E   
----------------------------|-------------------------------|
----------------------------|-------------------------------|
--2---2-L---2--5---5-L---5--|-------------------------------|
--2---2-L---2--5---5-L---5--|-----------2--L--3--2h-3p-2----|
--0---0-L-0----3---3-L-3----|------3-L-------------------3--|
----------------------------|--1----------------------------|


  A5           C5                                       
  E.  S S S E  E.  S S S E     E.  S E  E  E  E  E  E   
----------------------------|--------------------------|
----------------------------|--------------------------|
--2---2-L---2--5---5-L---5--|--------------------------|
--2---2-L---2--5---5-L---5--|--------------0-----------|
--0---0-L-0----3---3-L-3----|------2-L--------3--2-----|
----------------------------|--3--------3-----------3--|


  A5          C5                                           
                                               |--3--|     
  E.  S E  E  E.  S E  E     E.  S E  E  E  E  S  S  S E   
--------------------------|-------------------------------|
--------------------------|-------------------------------|
--2---2-L--2--5---5-L--5--|-------------------------------|
--2---2-L--2--5---5-L--5--|-----------2--L--3--2h-3p-2----|
--0---0-L--0--3---3-L--3--|------3-L-------------------3--|
--------------------------|--1----------------------------|


lead break
      E5                 E5-     
  S S E  S S E  S S E  S E   S   
|------0------0------0----0---0-|
|------0------0------0----0---0-|
|------9------9------9----9---9-|
|------9------9------9----8---8-|
|------7------7------7----7---7-|
|--0-0----0-0----0-0----0-------|
|                               |
|lead guitar                    |
|           H        Q    Q     |      
|-------------------------7/----|
|-------------------------------|
|-------------------------------|
|-------------------------------|
|-------------------------------|
|-------------------------------|


                  E5                                              
   S       S      E            S      S       E            S       
|-----------------0---------------------------0-------------------
|-----------------0---------------------------0-------------------
|-----------------9---------------------------9-------------------
|-----------------9---------------------------9-------------------
|-----------------7---------------------------7-------------------
|--0-------0-------------------0------0--------------------0------
|
|   T      T      T      T      T      T      T      T      T       
|   T   T  T   T  T   T  T   T  T   T  T   T  T   T  T   T  T   T  
|--15p-12-15p-12-15p-12-------------------------------------------
|-----------------------15p-12-15p-12-15p-12----------------------
|--------------------------------------------14p-12-14p-12-14p-12-
|-----------------------------------------------------------------
|-----------------------------------------------------------------
|-----------------------------------------------------------------


                            E5-    
  S      E            S      E          S 
|--------0-------------------0----------0-----|
|--------0-------------------0----------0-----|
|--------9-------------------9----------9-----|
|--------9-------------------8----------8-----|
|--------7-------------------7----------7-----|
|-0-------------------0-----------------------|
|                                             |
| T      T      T      T     T     T     T    |
| T   T  T   T  T   T  T  T  T  T  T  T  T  T |
|---------------------------------------------|
|---------------------------------------------|
|---------------------------------------------|
|14p-12-14p-12-14p-12-12p-9-12p-9-13p-9-13p-9-|
|---------------------------------------------|
|---------------------------------------------| 



2nd verse                                                             
   S         E  E  S S E  E  S S S S S     S E  E  S  S E  E  S  E   E   
|--------------------------------------|--------------------------------|
|--------------------------------------|--------------------------------|
|--9-----------------9---------9-9-9-9-|--------------------------------|
|--9-----------------9---------9-9-9-9-|--10---------10---------10--10--|
|--7-----------------7---------7-7-7-7-|---7----------7----------7---7--|
|------------0--0--0---0--0--0---------|-----0--0--0----0--0--0---------|
|                                                                       |
|                                                                       |
|   Q.                                                                  |
|--------------------------------------|--------------------------------|
|--------------------------------------|--------------------------------|
|--------------------------------------|--------------------------------|
|--14\---------------------------------|--------------------------------|
|--------------------------------------|--------------------------------|
|--------------------------------------|--------------------------------|



  S E  E  S S E  E  S S  S E     E  S S S S  S S S  S S S  S S S  S  
------------------------------|-------------------------------------|
------------------------------|-------------------------7-10-7------|
--5---------5---------5--L-5--|--7----7-L-------------8--------8----|
--5---------5---------5p-3-5--|--7----7-L--------7-10------------10-|
--3-3--3--3-3-3--3--3-3--L-3--|--5--5-5-L-5S-6-9--------------------|
------------------------------|-------------------------------------|


  S E  E  S S E  E  S S S S S     S E  E  S  S E  E  S  Q     
------------------------------|------------------------------|
------------------------------|------------------------------|
--9---------9---------9-9-9-9-|------------------------------|
--9---------9---------9-9-9-9-|--10---------10---------10----|
--7---------7---------7-7-7-7-|---7----------7----------7----|
----0--0--0---0--0--0---------|-----0--0--0----0--0--0-------|


  Q    Q    Q    Q       E  S S S S S S S  S  S  S E  S S  
----------------------|-----------------------------------|
----------------------|--3--------------------------------|
--5----4----2---------|--2----------0-0-2h-4p-2p-0-2------|
--5----4----2----5----|--0--2-2-4-4-----------------------|
--3----2----0----5----|-----------------------------------|
-----------------3----|-------------------------------0-0-|


  |-3-| |-3-| |-3-| |-3-| |-3-| |-3-|        
  S S S S S S S S S S S S S S S S S S E  E   
--------------------------------------------|
--------------------------------------------|
--------------------------------------------|
--9---L-------------9---L-------------9--9--|
--7-7-7-7-7-7-7-7-7-7-7-7-7-7-7-7-7-7-7--7--|
--------------------------------------------|


   |-3-| |-3-| |-3-|  |-3-| |-3-| |-3-|          
   S S S S S S S S S  S S S S S S S S S  E   E   
------------------------------------------------|
------------------------------------------------|
------------------------------------------------|
--10---L-------------10---L-------------10--10--|
---7-7-7-7-7-7-7-7-7--7-7-7-7-7-7-7-7-7--7---7--|
------------------------------------------------|


  |-3-| |-3-| |-3-| |-3-| |-3-| |-3-|        
  S S S S S S S S S S S S S S S S S S E  E   
--------------------------------------------|
--------------------------------------------|
--------------------------------------------|
--5---L-------------5---L-------------5--5--|
--3-3-3-3-3-3-3-3-3-3-3-3-3-3-3-3-3-3-3--3--|
--------------------------------------------|


                 |--3-|  |--3-|  |--3-| |--3-|  
  E  S S S S E   S  S S  S  S S  S  S S S  S S  
-----------------------------------------------|
----------------10p-7-7------------------------|
--7----7-L---7----------11p-8-8----------------|
--7----7-L---7------------------10p-7-7--------|
--5--5-5-L-5-5--------------------------9p-6-6-|
-----------------------------------------------|


  |-3-| |-3-| |-3-| |-3-| |-3-| |-3-|        
  S S S S S S S S S S S S S S S S S S E  E   
--------------------------------------------|
--------------------------------------------|
--------------------------------------------|
--9---L-------------9---L-------------9--9--|
--7-7-7-7-7-7-7-7-7-7-7-7-7-7-7-7-7-7-7--7--|
--------------------------------------------|


   |-3-| |-3-| |-3-|  |-3-| |-3-| |-3-|        
   S S S S S S S S S  S S S S S S S S S  Q     
----------------------------------------------|
----------------------------------------------|
----------------------------------------------|
--10---L-------------10---L-------------10----|
---7-7-7-7-7-7-7-7-7--7-7-7-7-7-7-7-7-7--7----|
----------------------------------------------|


  |-6-| |-6-| |-6-| |-6-| |-6-| |-6-| |-6-| |-6-|  
  S S S S S S S S S S S S S S S S S S S S S S S S  
--------------------------------------------------|
--------------------------------------------------|
--9-5-7-9-7-5-------------7-4-5-7-5-4-------------|
--------------7-4-5-7-5-4-------------5-2-3-5-3-2-|
--------------------------------------------------|
--------------------------------------------------|


                                       pre-chorus
  |-6-| |-6-| |-6-| |-6-|                                           
  S S S S S S S S S S S S E  E  E  E     E.  S S S E  E.  S S S E   
--------------------------------------|----------------------------|
--------------------------------------|----------------------------|
--5-2-4-5-4-2-------------------------|--2---2-L---2--5---5-L---5--|
--------------4-1-2-4-2-1-2--0--------|--2---2-L---2--5---5-L---5--|
--------------------------------3--2--|--0---0-L-0----3---3-L-3----|
--------------------------------------|----------------------------|


  E.  S E  E  E  E  E  E     E.  S S S E  E.  S S S E   
--------------------------|----------------------------|
--------------------------|----------------------------|
--------------------------|--2---2-L---2--5---5-L---5--|
--------------0-----------|--2---2-L---2--5---5-L---5--|
------2-L--------3--2-----|--0---0-L-0----3---3-L-3----|
--3--------3-----------3--|----------------------------|


                    |--3--|                                  
  E.  S E  E  E  E  S  S  S E     E.  S S S E  E.  S S S E   
-------------------------------|----------------------------|
-------------------------------|----------------------------|
-------------------------------|--2---2-L---2--5---5-L---5--|
-----------2--L--3--2h-3p-2----|--2---2-L---2--5---5-L---5--|
------3-L-------------------3--|--0---0-L-0----3---3-L-3----|
--1----------------------------|----------------------------|


  E.  S E  E  E  E  E  E     E.  S E  E  E.  S E  E   
--------------------------|--------------------------|
--------------------------|--------------------------|
--------------------------|--2---2-L--2--5---5-L--5--|
--------------0-----------|--2---2-L--2--5---5-L--5--|
------2-L--------3--2-----|--0---0-L--0--3---3-L--3--|
--3--------3-----------3--|--------------------------|


                    |--3--|                            |--3--|     
  E.  S E  E  E  E  S  S  S E     E.  S S S S E  S S S S  S  S E   
-------------------------------|----------------------------------|
-------------------------------|----------------------------------|
-------------------------------|----------------------------------|
-----------2--L--3--2h-3p-2----|--------------2--3-3-3-2h-3p-2----|
------3-L-------------------3--|------3-L-3-3------------------3--|
--1----------------------------|--1-------------------------------|


1st chorus
  S S S S S S S S S S S S S S S S    S S E  S  S S S S E  S S S E   
----------------------------------|--------------------------------|
----------------------------------|--------------------------------|
----------------------------------|--------------------------------|
----------------------------------|--------------------------------|
----------------------------------|------7--5h-7---7-L-5--5-7-5-7--|
--0-0-3-2-0-5-2-0-7-5-0-8-L-8-7-8-|--0-0---------0-----------------|


  S S S S S S S S S S S S E  S S    E.  S E  E  S E  S S S S S  
---------------------------------|-----------------------------|
---------------------------------|-----------------------------|
---------------------------------|--4---5-L--7--L-7--7-8-8-8-8-|
---------------------------------|--4---5-L--7--L-7--7-7-7-7-7-|
-----------------------------0-0-|--2---3-L--5--L-5--5-6-6-6-6-|
--0-0-3-2-0-5-2-0-7-5-0-8-L------|-----------------------------|


  S S S S S S S S S S S S S S S S  
----------------------------------|
----------------------------------|
----------------------------------|
----------------------------------|
----------------------------------|
--0-0-3-2-0-5-2-0-7-5-0-8-L-8-7-8-|


  S S E  S  E  S T T T  T T T  T T T  T T T E   
-----------------------------------------------|
-----------------------------------------------|
-----------------------------------------------|
--------------------------7-9-10-9-7-----------|
------7--5h-7--7-6-7-9-10------------10-9-7-6--|
--0-0------------------------------------------|


  S S S S S S S S S S S S E  S S    E.  S E  E  S E  S S S S S  
---------------------------------|-----------------------------|
---------------------------------|-----------------------------|
---------------------------------|--4---5-L--7--L-7--7-8-8-8-8-|
---------------------------------|--4---5-L--7--L-7--7-7-7-7-7-|
-----------------------------0-0-|--2---3-L--5--L-5--5-6-6-6-6-|
--0-0-3-2-0-5-2-0-7-5-0-8-L------|-----------------------------|


  Q    E  E  E  E  E  E     E  E  E  E  E  E   E  E   
-------------------------|---------------------------|
----------8--L-----8--7--|--L------------------------|
--9-------9--L--------9--|--L-----9--7---------------|
--9----9--------9--------|-----9--------9--7---------|
--7----7--------7--------|-----7--------------10--9--|
--0----------------------|---------------------------|


3rd verse
doubled with clean guitar
  Emadd9                   G6 (no5)                                  
  Q      E   E  E   E  E   E          E  E   E   E   E   E   E   E   
-----------------------------------|----------------12--------------|
----------------8------------------|------------12------12------12--|
------------11-----11--------------|--------12--------------12------|
---------9-------------------------|-----9--------------------------|
--7--------------------9--10-------|--L-----------------------------|
-----------------------------------|--------------------------------|


  Cadd9                        D6                D#dim7                
  E      E   E  E   E   E  E   E      E  E   E   E      E   E   E  E   
----------------------------------|-----------------------------------|
----------------------------------|------0---------------------13--0--|
----------------9-----------------|---------11-------------11---------|
------------12-----12-------------|--------------------10-------------|
--------10-------------10---------|--12-------------------------------|
--8------------------------8--10--|-------------11------L---L---L--L--|


  Emadd9                   G6 (no5)                                  
  Q      E   E  E   E  E   E          E  E   E   E   E   E   E   E   
-----------------------------------|----------------12---L---L---L--|
----------------8------------------|------------12------12------12--|
------------11-----11--------------|--------12--------------12------|
---------9-------------------------|-----9--------------------------|
--7--------------------9--10-------|--L-----------------------------|
-----------------------------------|--------------------------------|


  Cadd9                        D6                D#dim7               
  E      E   E  E   E   E  E   E      E  E   E   E      E   E   Q     
----------------------------------|----------------------------------|
----------------------------------|------0---------------------13----|
----------------9-----------------|---------11-------------11--11----|
------------12-----12-------------|--------------------10------------|
--------10-------------10---------|--12------------------------------|
--8------------------------8--10--|-------------11------L---L---L----|


  Emadd9                       G6 (no5)                             
  Q       E.   S  S  S  E  E   E          Q     Q     E   Q     E   
----------0----0--L-----0--------------|-------12--------12--------|
----------8----8--L--8--8--------------|-------12--------12----12--|
---------11---11--L-11-11--------------|-------12--------12----12--|
----------9----------9--9--------------|--------9---------9-----9--|
--7------------------------9--10-------|--L----------10------------|
---------------------------------------|---------------------------|


  Cadd9                     D6                D#dim7 9-                
  Q      E.   S  E   E  E   E     E   E   E   E         E   E  E   E   
-------------------------------|-------------------------------0------|
---------0----0--L---0---------|----------0------------13---------13--|
---------9----9--L---9---------|---------11------------11--11-----11--|
--------12---12-----12---------|---------12------------10---------10--|
--------10---10--L--10---------|-----12-------------------------------|
--8---------------------8--10--|--L----------11---------L---L--L---L--|


  Emadd9                    G6 (no5)                                  
  Q       E.  S  E   E  E   E          Q     E   S  E  S  E   E   E   
----------0------L---0--------------|-------12--12-12--L--L---L---L--|
----------8------L---8--------------|-------12--12-----L-12-------L--|
---------11------L--11--------------|-------12--12-----L-12------12--|
----------9------L---9--------------|--------9---9-----L--9-------9--|
--7-----------7---------9--10-------|--L---------------------10------|
------------------------------------|--------------------------------|

  end of clean guitar doubling
  forte                                                                
  Q     Q    Q    Q       T T T T E  T T T T E  T T T T E  T T T T E   
-----------------------|----------------------------------------------|
-----------------------|----------------------------------------------|
--5-----4----2---------|----------7----------5----------4-------------|
--5-----4----2----5----|----------7----------5----------4----------5--|
--3-----2----0----5----|--5-5-5-5-5--3-3-3-3-3--2-2-2-2-2----------5--|
------------------3----|-----------------------------------3-3-3-3-3--|

pre-chorus
  E.  S S S E  E.  S S S E     E.  S E  E  E  E  E  E   
----------------------------|--------------------------|
----------------------------|--------------------------|
--2---2-L---2--5---5-L---5--|--------------------------|
--2---2-L---2--5---5-L---5--|--------------0-----------|
--0---0-L-0----3---3-L-3----|------2-L--------3--2-----|
----------------------------|--3--------3-----------3--|


                                                 |--3--|     
  E.  S S S E  E.  S S S E     E.  S E  E  E  E  S  S  S E   
----------------------------|-------------------------------|
----------------------------|-------------------------------|
--2---2-L---2--5---5-L---5--|-------------------------------|
--2---2-L---2--5---5-L---5--|-----------2--L--3--2h-3p-2----|
--0---0-L-0----3---3-L-3----|------3-L-------------------3--|
----------------------------|--1----------------------------|


  E.  S S S E  E.  S S S E     E.  S E  E  E  E  E  E   
----------------------------|--------------------------|
----------------------------|--------------------------|
--2---2-L---2--5---5-L---5--|--------------------------|
--2---2-L---2--5---5-L---5--|--------------0-----------|
--0---0-L-0----3---3-L-3----|------2-L--------3--2-----|
----------------------------|--3--------3-----------3--|


                                               |--3--|     
  E.  S E  E  E.  S E  E     E.  S E  E  E  E  S  S  S E   
--------------------------|-------------------------------|
--------------------------|-------------------------------|
--2---2-L--2--5---5-L--5--|-------------------------------|
--2---2-L--2--5---5-L--5--|-----------2--L--3--2h-3p-2----|
--0---0-L--0--3---3-L--3--|------3-L-------------------3--|
--------------------------|--1----------------------------|

                                   2nd chorus
                       |--3--|                                        
  E.  S S S S E  S S S S  S  S E     S S S S S S S S S S S S S S S S  
----------------------------------|----------------------------------|
----------------------------------|----------------------------------|
----------------------------------|----------------------------------|
--------------2--3-3-3-2h-3p-2----|----------------------------------|
------3-L-3-3------------------3--|----------------------------------|
--1-------------------------------|--0-0-3-2-0-5-2-0-7-5-0-8-L-8-7-8-|


  S S E  S  S S S S E  S S S E     S S S S S S S S S S S S E  S S  
--------------------------------|---------------------------------|
--------------------------------|---------------------------------|
--------------------------------|---------------------------------|
--------------------------------|---------------------------------|
------7--5h-7---7-L-5--5-7-5-7--|-----------------------------0-0-|
--0-0---------0-----------------|--0-0-3-2-0-5-2-0-7-5-0-8-L------|


  E.  S E  E  S E  S S S S S    S S S S S S S S S S S S S S S S  
-----------------------------|----------------------------------|
-----------------------------|----------------------------------|
--4---5-L--7--L-7--7-8-8-8-8-|----------------------------------|
--4---5-L--7--L-7--7-7-7-7-7-|----------------------------------|
--2---3-L--5--L-5--5-6-6-6-6-|----------------------------------|
-----------------------------|--0-0-3-2-0-5-2-0-7-5-0-8-L-8-7-8-|


              |-3-|    |-3-|                                           
  S S E  S  S S S S E  S S S E  E      S S S S S S S S S S S S E  S S  
------------------3-7---------------|---------------------------------|
----------------5-------------------|---------------------------------|
--------------4---------------------|---------------------------------|
---------------------------5-9------|---------------------------------|
------7--5h-7------------7----------|-----------------------------0-0-|
--0-0------------------7--------7\--|--0-0-3-2-0-5-2-0-7-5-0-8-L------|

                             instrumental interlude
                               E5                             
  E.  S E  E  S E  S S S E     S S S S E  S S S E  S S S E   
----------------------------|--0-0-0-0----0-0-0------0-0----|
----------------------------|--0-0-0-0----0-0-0------0-0----|
--4---5-L--7--L-7--7-8-8-8--|--9-9-9-9----9-9-9------9-9----|
--4---5-L--7--L-7--7-7-7-7--|--9-9-9-9----9-9-9------9-9----|
--2---3-L--5--L-5--5-6-6-6--|--7-7-7-7----7-7-7------7-7----|
----------------------------|--0-0-0-0----0-0-0------0-0----|


                              E5                             
  S S S S E  S S E  S S E     S S S S E  S S S E  S S S E   
--0-0-0-0----0-0----0-0----|--0-0-0-0----0-0-0------0-0----|
--0-0-0-0----0-0----0-0----|--0-0-0-0----0-0-0------0-0----|
--9-9-9-9----9-9----9-9----|--9-9-9-9----9-9-9------9-9----|
--9-9-9-9----9-9----9-9----|--9-9-9-9----9-9-9------9-9----|
--7-7-7-7----7-7----7-7----|--7-7-7-7----7-7-7------7-7----|
--0-0-0-0----0-0----0-0----|--0-0-0-0----0-0-0------0-0----|


                             slower - 108 Bpm                            
                             E5                                 
  S S S S E  S S H           S S S S E  S S S E  S S S E   
--0-0-0-0----0-0----------|--0-0-0-0----0-0-0------0-0----|
--0-0-0-0----0-0----------|--0-0-0-0----0-0-0------0-0----|
--9-9-9-9----9-9----------|--9-9-9-9----9-9-9------9-9----|
--9-9-9-9----9-9----------|--9-9-9-9----9-9-9------9-9----|
--7-7-7-7----7-7----------|--7-7-7-7----7-7-7------7-7----|
--0-0-0-0----0-0----------|--0-0-0-0----0-0-0------0-0----|


                                Bsus4                             
  S S S S E  S S Q    S S E     S S S S E  S S S E  S S S E   
--0-0-0-0----0-0------0-0----|-------------------------------|
--0-0-0-0----0-0------0-0----|--7-7-7-7----7-7-7------7-7----|
--9-9-9-9----9-9------9-9----|--9-9-9-9----9-9-9------9-9----|
--9-9-9-9----9-9------9-9----|--9-9-9-9----9-9-9------9-9----|
--7-7-7-7----7-7------7-7----|--7-7-7-7----7-7-7------7-7----|
--0-0-0-0----0-0------0-0----|--7-7-7-7----7-7-7------7-7----|


                                keyboard melody begins
                                E5                             
  S S S S E  S S Q    S S E     S S S S E  S S S E  S S S E   
-----------------------------|--0-0-0-0----0-0-0------0-0----|
--7-7-7-7----7-7------7-7----|--0-0-0-0----0-0-0------0-0----|
--9-9-9-9----9-9------9-9----|--9-9-9-9----9-9-9------9-9----|
--9-9-9-9----9-9------9-9----|--9-9-9-9----9-9-9------9-9----|
--7-7-7-7----7-7------7-7----|--7-7-7-7----7-7-7------7-7----|
--7-7-7-7----7-7------7-7----|--0-0-0-0----0-0-0------0-0----|

                            
  S S S S E  S S Q    S S E   
--0-0-0-0----0-0------0-0----|
--0-0-0-0----0-0------0-0----|
--9-9-9-9----9-9------9-9----|
--9-9-9-9----9-9------9-9----|
--7-7-7-7----7-7------7-7----|
--0-0-0-0----0-0------0-0----|


   Bsus4                         
   S  S  S  S E    S S S E     S  S  S  E   
|---------------------------------------------|
|--7--7--7--7------7-7-7----------7--7--------|
|--9--9--9--9------9-9-9----------9--9--------|
|--9--9--9--9------9-9-9----------9--9--------|
|--7--7--7--7------7-7-7----------7--7--------|
|--7--7--7--7------7-7-7----------7--7--------|
|                                             |
|lead guitar                                  |
|  S  S  S  S S  S S  S S  S S  S  S  S  S  S |  
|-------------8----8-10-8----8----------------|
|--8-12-10-12---12--------12---12-10-12-10-12-|
|---------------------------------------------|
|---------------------------------------------|
|---------------------------------------------|
|---------------------------------------------|

                               
   S  S  S  S E    S S Q          S  S  E   
|---------------------------------------------|
|--7--7--7--7------7-7------------7--7--------|
|--9--9--9--9------9-9------------9--9--------|
|--9--9--9--9------9-9------------9--9--------|
|--7--7--7--7------7-7------------7--7--------|
|--7--7--7--7------7-7------------7--7--------|
|                                             |
|                                             |
|  S  S  S  S S  S S  S S  S S  S  S  S  S  S |  
|-------------8----8-10-8----8----------------|
|--8-12-10-12---12--------12---12-10-12-10-12-|
|---------------------------------------------|
|---------------------------------------------|
|---------------------------------------------|
|---------------------------------------------|


   E5                            
   S S S S E   S S S E   S S S E      S S S S E   S S Q       S S E   
|--0-0-0-0-----0-0-0-------0-0-----|--0-0-0-0-----0-0---------0-0-----|
|--0-0-0-0-----0-0-0-------0-0-----|--0-0-0-0-----0-0---------0-0-----|
|--9-9-9-9-----9-9-9-------9-9-----|--9-9-9-9-----9-9---------9-9-----|
|--9-9-9-9-----9-9-9-------9-9-----|--9-9-9-9-----9-9---------9-9-----|
|--7-7-7-7-----7-7-7-------7-7-----|--7-7-7-7-----7-7---------7-7-----|
|--0-0-0-0-----0-0-0-------0-0-----|--0-0-0-0-----0-0---------0-0-----|
|                                                                     |
|                                                                     |
|  S S S S S S S S S S S S S S S S    S S S S S S S S S S S S S S S S |  
|----------5---5-7-5---5-----------|----------5---5-7-5---5-----------|
|--5-8-7-8---8-------8---8-7-8-7-8-|--5-8-7-8---8-------8---8-7-8-7-8-|
|----------------------------------|----------------------------------|
|----------------------------------|----------------------------------|
|----------------------------------|----------------------------------|
|----------------------------------|----------------------------------|


   Bsus4                             
   S  S  S  S  E     S  S  S  E     S  S  S  E   
|--------------------------------------------------|
|--7--7--7--7--------7--7--7-----------7--7--------|
|--9--9--9--9--------9--9--9-----------9--9--------|
|--9--9--9--9--------9--9--9-----------9--9--------|
|--7--7--7--7--------7--7--7-----------7--7--------|
|--7--7--7--7--------7--7--7-----------7--7--------|
|                                                  |
|                                                  |
|  S  S  S  S  S  S  S  S  S  S  S  S  S  S  S  S  |  
|--------------12----12-14-12----12----------------|
|--12-15-13-15----15----------15----15-13-15-13-15-|
|--------------------------------------------------|
|--------------------------------------------------|
|--------------------------------------------------|
|--------------------------------------------------|


   S    S    S    S  E        S    S 
|--------------------------------------
|--7----7----7----7-----------7----7---
|--9----9----9----9-----------9----9---
|--9----9----9----9-----------9----9---
|--7----7----7----7-----------7----7---
|--7----7----7----7-----------7----7---
|
|   |--3--|  |--3--|  |--3--|  |--3--| 
|   S  S  S  S  S  S  S  S  S  S  S  S 
|--------------------12----12-14-12-14-
|--13-12-13-15-13-15----15-------------
|--------------------------------------
|--------------------------------------
|--------------------------------------
|--------------------------------------


   Q                       S     S     E   
|--------------------------------------------------|
|--------------------------7-----7-----------------|
|--------------------------9-----9-----------------|
|--------------------------9-----9-----------------|
|--------------------------7-----7-----------------|
|--------------------------7-----7-----------------|                                          
|                                                  |
|                                                  |
|   T  T  T  T  T  T  T  T  T  T  T  T  T  T  T  T |
|--17-15-14----15-14-------14----------------------|
|-----------17-------17-15----17-15-13-15-13-12-11-|
|--------------------------------------------------|
|--------------------------------------------------|
|--------------------------------------------------|
|--------------------------------------------------|


Guitar Solo
lead guitar 1
    W                     H         E   E   S  S  E   
|---------------------|------------------------------|
|--14~----------------|--13~--------L--17p--L-14-17--|
|---------------------|------------------------------|
|---------------------|------------------------------|
|---------------------|------------------------------|
|---------------------|------------------------------|
|                                                    |
|lead guitar 2                                       |
|  W                     H         E   E    S  S  E  |   
|---------------------|------------------------------|
|---------------------|----------------10---L----10--|
|--11~----------------|--10~--------L---------11-----|
|---------------------|------------------------------|
|---------------------|------------------------------|
|---------------------|------------------------------|


    Q     E   E  E   E   S  S  S  S     Q     Q    Q    E.   S  
|------------17--L------------17----|--15~----L----L----L------|
|--14----14---------14~--L-14----14-|--------------------------|
|-----------------------------------|--------------------------|
|-----------------------------------|-----------------------14-|
|-----------------------------------|--------------------------|
|-----------------------------------|--------------------------| 
|                                                              |
|                                                              |
|   Q     E   E  E   E   S  S  S  S     Q     Q    Q    E  E   |
|-----------------------------------|--------------------------|
|------------14--L------------14----|--13~----L----L----L------|
|--11----11---------11~--L-11----11-|--------------------------|
|-----------------------------------|--------------------------|
|-----------------------------------|--------------------------|
|-----------------------------------|--------------------------|


lead guitar 1
   S  S  S  S  S  S  S  S  S  S  S  S  S  S  S  S  
--------------------------------------------------|
-----------14-15-14----------------14-15-14-------|
--------14----------14----------14----------14----|
--15-16----------------16-15-16----------------16-|
--------------------------------------------------|
--------------------------------------------------|


   S  S  S  S  S  S  S  S  S  S  S  S  S  S  S  S  
--------------------------------------------------|
-----------13-15-13----------------13-15-13-------|
--------14----------14----------14----------14----|
--14-15----------------15-14-15----------------14-|
--------------------------------------------------|
--------------------------------------------------|


   S  S  S  S  S  S  S  S  S  S  S  S  S  S  S  S  
--------------------------------------------------|
-----------14-15-14----------------14-15-14-------|
--------14----------14----------14----------14----|
--15-16----------------16-15-16----------------16-|
--------------------------------------------------|
--------------------------------------------------|


   S  S  S  S  S  S  S  S  S  S  S  S  E    E    
------------------------------------------------|
-----------13-15-13----------------13-15~--15~--|
--------14----------14----------14--------------|
--14-15----------------15-14-15-----------------|
------------------------------------------------|
------------------------------------------------|

 170 Bpm
 lead guitar 1 fades out
    W                  
|-------------------------------------------------|
|--14~--------------------------------------------|
|-------------------------------------------------|
|-------------------------------------------------|
|-------------------------------------------------|
|-------------------------------------------------|
|                                                 |
|lead guitar 2                                  | 
|   S   S  E   S   S  S   S  E   S   S  S   S  E  |   
|-------------------------------------------------|
|--14p-10-----14p-10-14p-10-----14p-10-14p-10-----|
|---------11----------------11----------------11--|
|-------------------------------------------------|
|-------------------------------------------------|
|-------------------------------------------------|


lead guitar 2 cont'
   S   S  E   S   S  S   S  E   S   S  S   S  E   
-------------------------------------------------|
--14p-10-----14p-10-14p-10-----14p-10-14p-10-----|
---------11----------------11----------------11--|
-------------------------------------------------|
-------------------------------------------------|
-------------------------------------------------|


   S   S  E   S   S  S   S  E   S   S  S   S  E   
-------------------------------------------------|
--17p-14-----17p-14-17p-14-----17p-14-17p-14-----|
---------14----------------14----------------14--|
-------------------------------------------------|
-------------------------------------------------|
-------------------------------------------------|


   S   S  E   S   S  S   S  E   S   S  S   S  E   
-------------------------------------------------|
--17p-14-----17p-14-17p-14-----17p-14-17p-14-----|
---------14----------------14----------------14--|
-------------------------------------------------|
-------------------------------------------------|
-------------------------------------------------|


   S   S  E   S   S  S   S  E   S   S  S   S  E   
--17p-14-----17p-14-17p-14-----17p-14-17p-14-----|
---------15----------------15----------------15--|
-------------------------------------------------|
-------------------------------------------------|
-------------------------------------------------|
-------------------------------------------------|


   S   S  E   S   S  S   S  E   S   S  S   S  E   
--17p-14-----17p-14-17p-14-----17p-14-17p-14-----|
---------15----------------15----------------15--|
-------------------------------------------------|
-------------------------------------------------|
-------------------------------------------------|
-------------------------------------------------|


   S   S  E   S   S  S   S  E   S   S  S   S  E   
--16p-14-----16p-14-16p-14-----16p-14-16p-14-----|
---------14----------------14----------------14--|
-------------------------------------------------|
-------------------------------------------------|
-------------------------------------------------|
-------------------------------------------------|


   S   S  E   S   S  S   S  E   S   S  S   S  T  T  S  
--16p-13-----16p-13-16p-13-----16p-13-16p-13----------|
---------14----------------14----------------------10-|
------------------------------------------------11----|
---------------------------------------------11-------|
------------------------------------------------------|
------------------------------------------------------|


   S   S  T  T  S  S   S  S   S  T  T  S  S   S  S   S  T  T  S  
----------------------------------------------------------------|
--14p-10-------10-14p-10-14p-10-------10-14p-10-14p-10-------10-|
------------11---------------------11---------------------11----|
---------11---------------------11---------------------11-------|
----------------------------------------------------------------|
----------------------------------------------------------------|


   S   S  T  T  S  S   S  S   S  T  T  S  S   S  S   S  T  T  S  
----------------------------------------------------------------|
--14p-10-------10-14p-10-14p-10-------10-14p-10-14p-10-------14-|
------------11---------------------11---------------------14----|
---------11---------------------11---------------------14-------|
----------------------------------------------------------------|
----------------------------------------------------------------|


   S   S  T  T  S  S   S  S   S  T  T  S  S   S  S   S  T  T  S  
----------------------------------------------------------------|
--17p-14-------14-17p-14-17p-14-------14-17p-14-17p-14-------14-|
------------14---------------------14---------------------14----|
---------14---------------------14---------------------14-------|
----------------------------------------------------------------|
----------------------------------------------------------------|


   E   T  T  S  E   T  T  S  E   T  T  S  E   T  T  S  
------------------------------------------------------|
--17--------14-19--------14-17--14-----------------19-|
---------14-----------14-----------14-----------19----|
------14-----------14-----------------14-----19-------|
-----------------------------------------16-----------|
------------------------------------------------------|


   S   S  T  T  S  S   S  S   S  T  T  S  S   S  S   S  T  T  T  T  
-------------------------------------------------------------------|
--22p-19-------19-22p-19-22p-19-------19-22p-19-22p-19----------19-|
------------19---------------------19------------------19----19----|
---------19---------------------19------------------------19-------|
-------------------------------------------------------------------|
-------------------------------------------------------------------|


   S   S  T  T  S  S   S  S   S  T  T  S  S   S  E   E   
--------------------------------------------------------|
--22p-19-------19-22p-19-22p-19-------19-22p-19-22--22--|
------------19---------------------19-------------------|
---------19---------------------19----------------------|
--------------------------------------------------------|
--------------------------------------------------------|


   |----3---|   |---3---|   |----3---|   |------5-----|  
   E    E   E   E   E   E   E    E   E   S  S  S  S   S  
--16p--13--------------13--16p--13------------13-16p-13-|
-----------14------14---------------14-----14-----------|
---------------13-----------------------13--------------|
--------------------------------------------------------|
--------------------------------------------------------|
--------------------------------------------------------|


                                                    115 Bpm
   |----3---|   |------5-----|  |----3---|          3rd chorus        
   E    E   E   S  S  S  S   S  E    E   E   E  E     H         
--17p--14------------14-17p-14-19p--16-------------|-----------|
-----------15-----15--------------------17---------|-----------|
---------------14---------------------------16-----|-----------|
---------------------------------------------------|-----------|
---------------------------------------------------|-----------|
---------------------------------------------------|-----------|



  S S E  S  S S S S E  S S S E     S S S S S S S S S S S S E  S S  
--------------------------------|---------------------------------|
--------------------------------|---------------------------------|
--------------------------------|---------------------------------|
--------------------------------|---------------------------------|
------7--5h-7---7-L-5--5-7-5-7--|-----------------------------0-0-|
--0-0---------0-----------------|--0-0-3-2-0-5-2-0-7-5-0-8-L------|


  E.  S E  E  S E  S S S S S    S S S S S S S S S S S S S S S S  
-----------------------------|----------------------------------|
-----------------------------|----------------------------------|
--4---5-L--7--L-7--7-8-8-8-8-|----------------------------------|
--4---5-L--7--L-7--7-7-7-7-7-|----------------------------------|
--2---3-L--5--L-5--5-6-6-6-6-|----------------------------------|
-----------------------------|--0-0-3-2-0-5-2-0-7-5-0-8-L-8-7-8-|

                    harmonic glissando
                    NH   NH  NH  NH  NH  NH  NH  NH  NH  NH  NH  NH 
                    |----6---|   |---6---|   |---6---|   |---6---|  
  S S E  S  E  S    S    S   S   S   S   S   S   S   S   S   S   S  
-------------------------------------------------------------------|
-------------------------------------------------------------------|
-------------------------------------------------------------------|
-------------------------------------------------------------------|
------7--5h-7------------------------------------------------------|
--0-0----------0-<>12-<>12-<>7-<>7-<>5-<>5-<>7-<>7-<>5-<>5-<>3-<>3-|


  S S S S S S S S S S S S E  S S    E.  S E  E  S E  S S S S S  
---------------------------------|-----------------------------|
---------------------------------|-----------------------------|
---------------------------------|--4---5-L--7--L-7--7-8-8-8-8-|
---------------------------------|--4---5-L--7--L-7--7-7-7-7-7-|
-----------------------------0-0-|--2---3-L--5--L-5--5-6-6-6-6-|
--0-0-3-2-0-5-2-0-7-5-0-8-L------|-----------------------------|


  S S S S S S S S S S S S S S S S    S S E  S  S S S  S S S  S S S  S S  
----------------------------------|------------------------------------|
----------------------------------|------------------------------------|
----------------------------------|------------------------------------|
----------------------------------|------------------------------------|
----------------------------------|------7--5h-7---7p-5---5h-7---7p-5-7|
--0-0-3-2-0-5-2-0-7-5-0-8-L-8-7-8-|--0-0---------0------0------0-------|


  S S S S S S S S S S S S E  S S    E.  S E  E  S E  S S S E   
---------------------------------|----------------------------|
---------------------------------|----------------------------|
---------------------------------|--4---5-L--7--L-7--7-8-8-8--|
---------------------------------|--4---5-L--7--L-7--7-7-7-7--|
-----------------------------0-0-|--2---3-L--5--L-5--5-6-6-6--|
--0-0-3-2-0-5-2-0-7-5-0-8-L------|----------------------------|


                               B5/F# C5/G  D5/A        D#5-/E 
  E.  S E  E  S E  S S S E     S S S S S S S S S S S S S S S S  
----------------------------|----------------------------------|
----------------------------|----------------------------------|
--4---5-L--7--L-7--7-8-8-8--|--4-4-4-5-5-5-7-7-7-7-7-7-8-8-8-8-|
--4---5-L--7--L-7--7-7-7-7--|--4-4-4-5-5-5-7-7-7-7-7-7-7-7-7-7-|
--2---3-L--5--L-5--5-6-6-6--|--2-2-2-3-3-3-5-5-5-5-5-5-6-6-6-6-|
----------------------------|--2-2-2-3-3-3-5-5-5-5-5-5-0-0-0-0-|


  Esus2                          
  S S S S S S E  Q    Q
--7-7-7-7-L---7------------||
--7-7-7-7-L---7------------||
--9-9-9-9-L-9-9------------||
--9-9-9-9-L-9-9------------||
--7-7-7-7-L-7-7------------||
--0-0-0-0-L-0-0------------||
Добавлено: 31.05.2012
Другие материалы по этой песне:

Страница создана 24.04.2012
http://primanota.ru/ivory-knight/up-from-the-ashes-chords.htm
Привет, Гость.
Предлагаем пройти революционный курс по гитаре.
Подарок от PrimaNota.Ru, забирай!