PrimaNota.ru - самый крупный в мире бесплатный архив песенных текстов, аккордов, табулатур и нот


Ivano Fossati - I Treni a Vapore - текст песни, таба, видео

Регистрация Запомнить меня
Войти через:  Facebook Google Twitter Vk Yandex Mail.ru

Ivano Fossati - I Treni a Vapore - текст песни, таба, видео

Печатать
Просмотров: 92
Авторы музыки: Ivano Fossati
Авторы текста: Ivano Fossati
		   I TRENI A VAPORE (I.Fossati)-Trascribed by F.Natucci(Annyfabio@libero.it)

Mannoia-Daniele-DeGregori-Ron


         Aadd2              Dadd2/F#                 E                F#min7
      x 0 2 2 0 0          2 x 0 2 3 0          0 2 2 1 0 0        2 X X 2 2 0

Gtr I (E A D G B E) - ' '

      Q=90
  Aadd2                             Dadd2/F#
 4/4
      Gtr I
|-||------------------0-(0)-------|-----------------0-(0)---------||----|
|-||o-----------0-(0)-------0-----|-----------3-(3)-------3------o||----|
|-||------2-(2)---------------2---|-----2-(2)---------------2-----||----|
|-||----2-------------------------|---0---------------------------||----|
|-||o-0---------------------------|------------------------------o||----|
|-||----------------------------3-|-2--------------------------3--||----|


       Aadd2                          Dadd2/F#
  Gtr I
|--|-------------------0-(0)--------|-----------------0-(0)-------|----|
|--|-------------0-(0)-------0------|-----------3-(3)-------3-----|----|
|--|-------2-(2)---------------2----|-----2-(2)---------------2---|----|
|--|-----2--------------------------|---0-------------------------|----|
|--|---0----------------------------|-----------------------------|----|
|--|-----------------------------3--|-2-------------------------3-|----|


      Aadd2                          Dadd2/F#
|-|-------------------0-(0)--------|-----------------0-(0)-------|----|
|-|-------------0-(0)-------0------|-----------3-(3)-------3-----|----|
|-|-------2-(2)---------------2----|-----2-(2)---------------2---|----|
|-|-----2--------------------------|---0-------------------------|----|
|-|---0----------------------------|-----------------------------|----|
|-|-----------------------------3--|-2-------------------------3-|----|


      Aadd2                          Dadd2/F#
|-|-------------------0-(0)--------|-----------------0-(0)-------|----|
|-|-------------0-(0)-------0------|-----------3-(3)-------3-----|----|
|-|-------2-(2)---------------2----|-----2-(2)---------------2---|----|
|-|-----2--------------------------|---0-------------------------|----|
|-|---0----------------------------|-----------------------------|----|
|-|-----------------------------3--|-2-------------------------3-|----|


      Aadd2                          E
|-|-------------------0-(0)--------|-----------------0-(0)-/4-\3-\0-|----|
|-|-------------0-(0)-------0------|-----------1-(1)----------------|----|
|-|-------2-(2)---------------2----|-----2-(2)-------------/4-\3-\1-|----|
|-|-----2--------------------------|---2----------------------------|----|
|-|---0----------------------------|--------------------------------|----|
|-|-----------------------------3--|-0------------------------------|----|

{Intro}
[A]        [D]        [A]        [D]
[A]        [D]        [A]        [D]

(per comodità ho abbreviato le sigle degli accordi, che devono essere comunque considerati con le loro alterazioni.
 Es : [A] è da considerarsi [Aadd2] etc.)

[A]Io la sera mi addor[D]mento
E qualche volta [A]sogno perche' voglio [D]sognare
[A]E nel sogno stringo i [D]pugni
Tengo fermo il re[A]spiro e sto ad ascol[E]tare
[F#m7]Qualche volta sono gli [D]alberi d'Africa [A]a chiamare
[F#m7]Altre notti sono [D]vele piegate [A]a navigare.

[A]Sono uomini e [D]donne
[A]piroscafi e [E]bandiere
[A]Viaggiatori [D]viaggianti
[A]da sal[E]vare
[F#m7]Delle citta' impor[D]tanti mi ricordo [A]Milano
[F#m7]Livida e sprofon[D]data per sua stessa [A]mano.

[A]E se l'amore che a[D]vevo non sa piu' il mio [A]no[E]me
[A]E se l'amore che a[D]vevo non sa piu' il mio [A]no[E]me

{chorus}
[F#m7]Come i treni a va[D]pore come i treni a va[A]pore
Di stazione in sta[D]zione e di porta in [A]porta
E di pioggia in [D]pioggia di dolore in do[A]lore
Il do[E]lore passe[A]ra'.
{end_of_chorus}

Sale 1 tono e mezzo e va in tonalità di C maggiore fino al termine...

[C]        [F]        [C]        [F]
[C]        [F]        [C]        [F]

Io la sera mi addormento
E qualche volta sogno perche' so sognare
E mi sogno i tamburi della banda che passa
O che dovra' passare
E sogno la pioggia fredda e dritta sulle mani
I ragazzi della scuola che partono
Gia' domani.

{chorus}
E sogno i sognatori che aspettano la primavera
O qualche altra primavera da aspettare ancora
Fra un bicchiere di neve
E un caffe' come si deve
Quest'inverno passera'.
{end_of_chorus}

[C]E se l'amore che a[F]vevo non da più il mio [C]no[G]me
[C]E se l'amore che a[F]vevo non sa piu' il mio[C]no[G]me

{chorus}
Come i treni a vapore come i treni a vapore
Di stazione in stazione e di porta in porta
E di pioggia in pioggia di dolore in dolore
Il dolore passera'.
{end_of_chorus}

{Coda (Sfumando)}
[C]        [F]        [C]        [F]


     
Добавлено: 20.06.2013
Другие материалы по этой песне:
  • Аккорды и текст

Страница создана 22.03.2012
http://primanota.ru/ivano-fossati/i-treni-a-vapore-chords.htm
Привет, Гость.
Предлагаем пройти революционный курс по гитаре.
Подарок от PrimaNota.Ru, забирай!