PrimaNota.ru - самый крупный в мире бесплатный архив песенных текстов, аккордов, табулатур и нот


Ivan Mladek - Jozin Z Bazin - аккорды и текст, видео

Регистрация Запомнить меня
Войти через:  Facebook Google Twitter Vk Yandex Mail.ru

Ivan Mladek - Jozin Z Bazin - аккорды и текст, видео

Печатать
Просмотров: 814
Авторы музыки: Ivan Mládek
Авторы текста: Ivan Mládek
Jozin Z Bazin
Ivan Mladek
Strum on Upbeats

Intro: Em
e:------------------------------------|
B:------------------------------------|
G:------------------------------------|
D:------------------------------------|
A:-7-------7-----6/7-------7-----6/7--|
E:-----7-------7-------7------7-------|
   1 + 2 + 3 + 4 + 1 + 2 + 3 + 4 + 1 

Verse:
Em                  Cm     B      Em
Jedu takhle tábořit škodou sto na Oravu.
Em                      Cm        B    Em
Spěchám, proto riskuji, projíždím přes Moravu.
D           G          D           G F#m
Řádí tam to strašidlo, vystupuje z bažin,
Em                   G    F#m   D
žere hlavně Pražáky, jmenuje se Jožin.

Chorus:
G                        D
Jožin z bažin močálem se plíží,
Am                         D
Jožin z bažin k vesnici se blíží,
G                        D
Jožin z bažin už si zuby brousí,
Am                         D
Jožin z bažin kouše, saje, rdousí.
G                  F#m       Em   D
Na Jožina z bažin, koho by to napadlo,
G                 D                  G
platí jen a pouze práškovací letadlo.

Intro

Verse
Em                     Cm     B  Em
Projížděl jsem dědinou cestou na Vizovice.
Em                    Cm     B Em
Přivítal mě předseda, řek mi u slivovice:
 D         G       D          G    F#m 
"Živého či mrtvého Jožina kdo přivede,
Em                  G     F#m   D
tomu já dám za ženu dceru a půl JZD."

Chorus
Em                       Cm     B  Em
Říkám: "Dej mi předsedo letadlo a prášek,
Em                 Cm   B  Em
Jožina ti přivedu, nevidím v tom háček."
D         G       D          G    F#m 
Předseda mi vyhověl, ráno jsem se vznesl,
Em                  G     F#m   D
na Jožina z letadla prášek pěkně klesl.

Final Chorus:
G                        D
Jožin z bažin už je celý bílý,
Am                         D
Jožin z bažin z močálu ven pílí,
G                          D
Jožin z bažin dostal se na kámen,
Am                          D
Jožin z bažin tady je s ním amen.
G                         F#m    Em  D
Jožina jsem dohnal, už ho držím, johohó,
G             D                   G
dobré každé lóvé, prodám já ho do ZOO.

Kazoo Solo: Chords same as last two lines of chorus

e:---3---3-2---0---------------------------0---0------------------|
B:-----------------3------0--------2---2-2---------3--------------|
G:----------------------------------------------------------------|
D:----------------------------------------------------------------|
A:----------------------------------------------------------------|
E:----------------------------------------------------------------|
   1 e + a 2 e + a 3 e + a 4 e + a 1 e + a 2 e + a 3 e + a 4 e + a

e:-3---3---2---0---------------------------------------------------|
B:-----------------3-------0-------3-3---0-------------------------|
G:---------------------------------------------2---0-------0-------|
D:-----------------------------------------------------0-----------|
A:-----------------------------------------------------------------|
E:-----------------------------------------------------------------|
   1 e + a 2 e + a 3 e + a 4 e + a 1 e + a 2 e + a 3 e + a 4 e + a
Добавлено: 08.08.2015
Другие материалы по этой песне:
  • Аккорды и текст

Страница создана 08.08.2015
http://primanota.ru/ivan-mladek/jozin-z-bazin-chords.htm
Привет, Гость.
Предлагаем пройти революционный курс по гитаре.
Подарок от PrimaNota.Ru, забирай!