PrimaNota.ru - самый крупный в мире бесплатный архив песенных текстов, аккордов, табулатур и нот


Ivan Graziani - Dada - таба, видео

Регистрация Запомнить меня
Войти через:  Facebook Google Twitter Vk Yandex Mail.ru

Ivan Graziani - Dada - таба, видео

Печатать
Просмотров: 79
		   Ciao,

Ho trascritto fino al primo assolo compreso, circa 50 sec.
Durante le strofe (e sempre nell'intro) vengono spesso suonati accordi di
quinta, ma sopra il tab della strofa ho messo comunque gli accordi normali.
A X significa che la corda viene stoppata alzando leggermente il dito, ma
mantenendo il contatto con la corda.

Bonzo



Ivan Graziani

Dada


Tuning : E A D G B E  Time Signature: 4/4

Intro:

 B5                                      F#5
 |       |       |       |        |       |       |       |
|--------------------------------|--------------------------------|
|--------------------------------|--------------------------------|
|--------------------------------|--------------------------------|
|9-------X---9-------X---9-------|X---X---4-------4-------X---X---|
|9-------X---9-------X---9-------|X---X---4-------4-------X---X---|
|7-------X---7-------X---7-------|X---X---2-------2-------X---X---|

                                          B5
 |       |       |       |        |       |       |       |
|--------------------------------|--------------------------------|
|--------------------------------|--------------------------------|
|--------------------------------|--------------------------------|
|4-------X---4-------X---4-------|X---X---9-------9-------X---X---|
|4-------X---4-------X---4-------|X---X---9-------9-------X---X---|
|2-------X---2-------X---2-------|X---X---7-------7-------X---X---|

 Sol5                                     D5
 |       |       |       |        |       |       |       |
|--------------------------------|--------------------------------|
|--------------------------------|--------------------------------|
|--------------------------------|--------7-------7-------X---X---|
|5-------X---5-------X---5-------|X---X---7-------7-------X---X---|
|5-------X---5-------X---5-------|X---X---5-------5-------X---X---|
|3-------X---3-------X---3-------|X---X---------------------------|

 A5                                      B5
 |       |       |       |        |       |       |       |
|--------------------------------|--------------------------------|
|--------------------------------|--------------------------------|
|--------------------------------|--------------------------------|
|7-------X---7-------X---7-------|X---X---9-------9/--------------|
|7-------X---7-------X---7-------|X---X---9-------9/--------------|
|5-------X---5-------X---5-------|X---X---7-------7/--------------|


Strofa 1:

 Bm                              F#
 |       |       |       |        |       |       |       |
|--------------------------------|--------------------2-----------|
|--------------------------------|--------------------2-----------|
|4---------------4---------------|----------------------------3---|
|4---------------4---------------|4---------------4---------------|
|2---------------2---------------|4---------------4---------------|
|--------------------------------|2---------------2---------------|

                                  Bm
 |       |       |       |        |       |       |       |
|--------------------------------|--------------------------------|
|--------------------------------|--------------------------------|
|--------------------------------|4---------------4---------------|
|4---------------4---------------|4---------------4-------0---0---|
|4---------------4---------------|2---------------2-------0---0---|
|2---------------2---------------|--------------------------------|

 Sol                              D
 |       |       |       |        |       |       |       |
|--------------------------------|--------------------2-----------|
|--------------------------------|--------------------3-----------|
|--------------------------------|2---------------2-----------0---|
|5---------------5-------X-------|0---------------0-------0---0---|
|5---------------5-------X-------|------------------------0-------|
|3---------------3-------X-------|--------------------------------|

 A                               Bm
 |       |       |       |        |       |       |       |
|--------------------------------|--------------------------------|
|--------------------------------|--------------------------------|
|--------------------------------|--------------------------------|
|7---------------7-------X-------|9---------------9---------------|
|7---------------7-------X-------|9---------------9-------0-------|
|5---------------5-------X-------|7---------------7---------------|



Strofa 2: stessi accordi di strofa 1 con alcune piccole variazioni.


Primo Assolo (la base ritmica è l'intro):

 |       |       |       |        |       |       |       |
|10/-----------------2-----------|--------------------------------|
|------------------------5---3---|2---3---2---5-------------------|
|--------------------------------|--------------------------------|
|--------------------------------|--------------------------------|
|--------------------------------|--------------------------------|
|--------------------------------|--------------------------------|
 |       |       |       |        |       |       |       |
|--------------------------------|--------------------------------|
|--------------------------------|--------------------------------|
|------------------------2---3---|4---2---3---4-----------4---0---|
|------------4---3---4-----------|--------------------------------|
|4---3---4-----------------------|--------------------------------|
|--------------------------------|--------------------------------|
 |       |       |       |        |       |       |       |
|----------------3---2---0---2---|--------------------------------|
|--------------------------------|----3-----------3---------------|
|------------0-------------------|--------2-------2---------------|
|--------0-----------------------|----------------0---------------|
|--------------------------------|--------------------------------|
|--------------------------------|--------------------------------|
 |       |       |       |        |       |       |       |
|--------------------------------|--------------------------------|
|--------------------------------|--------------------------------|
|--------------------------------|--------------------------------|
|--------------------------------|----------------9\--------------|
|7---7---7-5/7---7---7---7---7---|5---------------9\--------------|
|--------------------------------|----7---7-------7\--------------|
	     
Добавлено: 15.10.2013
Другие материалы по этой песне:
  • Аккорды и текст

Страница создана 15.10.2013
http://primanota.ru/ivan-graziani/dada-chords.htm
Привет, Гость.
Предлагаем пройти революционный курс по гитаре.
Подарок от PrimaNota.Ru, забирай!