PrimaNota.ru - самый крупный в мире бесплатный архив песенных текстов, аккордов, табулатур и нот


Ivan And The Parazol - Modernial - таба, видео

Регистрация Запомнить меня
Войти через:  Facebook Google Twitter Vk Yandex Mail.ru

Ivan And The Parazol - Modernial - таба, видео

Печатать
Просмотров: 76
Уроки эстрадного вокала в Санкт-Петербурге
(/) Slide Up  (\) Slide Down  (h) Hammer On  (p) Pull Off  (b) Bend (r) Release (v) Vibrato

Stave 1:

E|---------------------------------------------------------------------------
B|---------------------------------------------------------------------------
G|--5--5--5-----5--3--3-----3--5--3-----3--3--3-----3--2--2------2--3--2-----
D|-----------5-----------5-----------5-----------5------------5-----------3--
A|---------------------------------------------------------------------------
E|---------------------------------------------------------------------------

E|----------------------------------------------------------------------------
B|----------------------------------------------------------------------------
G|--5--5--5-----5--3--3--5-/7\5--3-----3--3--3-----3--2--2------2--3--2-------
D|-----------5----------------------5-----------5------------5-----------3/5--
A|----------------------------------------------------------------------------
E|----------------------------------------------------------------------------

                                                        http://www.guitartabcreator.com

original video(not mine): https://www.youtube.com/watch?v=Mc8Txw83JUE

Ha tetszett a tab légyszi dobj neki egy 5 csillagos értékelés :)
If you liked the tab please leave a 5 star rating :)
Добавлено: 25.06.2016
Другие материалы по этой песне:
  • Аккорды и текст

Страница создана 25.06.2016
http://primanota.ru/ivan-and-parazol/modernial-chords.htm
Привет, Гость.
Предлагаем пройти революционный курс по гитаре.
Подарок от PrimaNota.Ru, забирай!